Oops, an error
Loading. Please wait.

Count On Me Tab

version 1
version 1

Whole song

Interactive

13,463 views 12 this week
no commentswrite comment
1 2 3 4 5
accurate
x 10
add to favorites
launch autoscroll
font size
0
reset
how to read this tab
guitar tuner
Tab Pro tools
  • play this tab
  • loop segment
  • change instrument
  • show fretboard
  • metronome
×
Best way to learn
"Count On Me"
Autoscroll
slow
fast
+/-
esc
set tempo
stop
Contributor
Difficulty
Tuning
novice
D A D G B E
-----------------------------------------------------------------------------
                           COUNT ON ME - Default
-----------------------------------------------------------------------------
Tabbed by: ConnerB                      This is similar to the Drop D + half 
Email: ConnerB317@yahoo.com             step down (DbAbDbGbBbEb)version of
                                        the song, but I thought it could be
Tab key at bottom                       done in Drop D, so here it is. This
                                        is my first tab so work with me here.
                                        
Tuning: Drop D (eBGDAD)

Intro/Verse
e|-------------------------------|---------------------------|
B|-------------------------------|---------------------------|
G|--8---8-8------------8---------|--8--8-8-8---6--6--6-6-----|
D|--8---8-8---5-6-5-------6^-----|--6--6-6-6---4--4--6-6--6--|
A|--6---6-6---6-6-6--------------|--6--6-6-6---4--4--4-4--6--|
D|-------------------------------|--6--6-6-6---4--4-------6--|

Bridge

e|---------------------------------------|
B|---------------------------------------|
G|-5-5-5-5-5---3-3-3-3-3-3---------------|
D|-5-5-5-5-5---3-3-3-3-3-3--6-6-6-6-6-6--|
A|-3-3-3-3-3---1-1-1-1-1-1--6-6-6-6-6-6--|
D|--------------------------6-6-6-6-6-6--|
  

Chorus
                                        
e|--------------------------------------|
B|--------------------------------------|
G|--8-8-8-8-----------6-6-6-6-----------|
D|--8-8-8-8--8-8-8-8--6-6-6-6--6-6-6-6--|
A|--6-6-6-6--8-8-8-8--4-4-4-4--6-6-6-6--|
D|-----------8-8-8-8-----------6-6-6-6--|
   
    
e|-------------------------------|-----------------------------------------|
B|-------------------------------|-----------------------------------------|
G|--8---8-8------------8---------|--8--8-8-8---6--6--6-6-------------------|
D|--8---8-8---5-6-5-------6^-----|--6--6-6-6---4--4--6-6--6----------------|
A|--6---6-6---6-6-6--------------|--6--6-6-6---4--4--4-4--6----------------|
D|-------------------------------|--6--6-6-6---4--4-------6----------------|


e|---------------------------------------|
B|---------------------------------------|
G|-5-5-5-5-5---3-3-3-3-3-3---------------|
D|-5-5-5-5-5---3-3-3-3-3-3--6-6-6-6-6-6--|
A|-3-3-3-3-3---1-1-1-1-1-1--6-6-6-6-6-6--|
D|--------------------------6-6-6-6-6-6--|

                                        
e|--------------------------------------|
B|--------------------------------------|
G|--8-8-8-8-----------6-6-6-6-----------|
D|--8-8-8-8--8-8-8-8--6-6-6-6--6-6-6-6--|
A|--6-6-6-6--8-8-8-8--4-4-4-4--6-6-6-6--|
D|-----------8-8-8-8-----------6-6-6-6--|


e|---------------------------------------|
B|---------------------------------------|
G|-5-5-5-5-5---3-3-3-3-3-3---------------|
D|-5-5-5-5-5---3-3-3-3-3-3--6-6-6-6-6-6--|
A|-3-3-3-3-3---1-1-1-1-1-1--6-6-6-6-6-6--|
D|--------------------------6-6-6-6-6-6--|


Solo (Backup Guitar plays Chorus throughout solo)

Chorus (Backup)                     Repeat
e|--------------------------------------||
B|--------------------------------------||
G|--8-8-8-8-----------6-6-6-6-----------||
D|--8-8-8-8--8-8-8-8--6-6-6-6--6-6-6-6--||
A|--6-6-6-6--8-8-8-8--4-4-4-4--6-6-6-6--||
D|-----------8-8-8-8-----------6-6-6-6--||

Solo (Lead)          
e|-----------------------------------------------------------------------|
B|-----------------------------------------------------------------------|
G|--12-12--10-8--10------8------12-12--10-8--10------8----10-10-10^--8---|
D|------------------8-10---8--------------------8-10---8-----------------|
A|-----------------------------------------------------------------------|
D|-----------------------------------------------------------------------|
   
      
e|---------------------------------------------------------------------|
B|----------------------------------------11-11------------------------|
G|------8-----13-13-12-12-8-8---------8------------10--8--10-----------|
D|-8-10---8------------------8-8-8-10---8------------------------------|
A|---------------------------------------------------------------------|
D|---------------------------------------------------------------------|


e|---------------------------------------------------------------------|
B|--------------11-11--------------------------------------------------|
G|----------8-----------10--8--10----------8----10-10-10^-8-----8------|
D|-8-8-8-10---8-------------------8-8-8-10---8----------------8---10---|
A|---------------------------------------------------------------------|
D|---------------------------------------------------------------------|


   Listen to song for help with this last part, it can get tricky...
e|-----------------11----11----|-15^--15^--15\11--13--13--13/15-15\11-11-|
B|--------11-11-11----13----13-|-----------------------------------------|
G|--13-13----------------------|-----------------------------------------|
D|-----------------------------|-----------------------------------------|
A|-----------------------------|-----------------------------------------|
D|-----------------------------|-----------------------------------------|
                 starting here ^
Bridge (Backup) (Play during end of Solo)
e|---------------------------------------|
B|---------------------------------------|
G|-5-5-5-5-5---3-3-3-3-3-3---------------|
D|-5-5-5-5-5---3-3-3-3-3-3--6-6-6-6-6-6--|
A|-3-3-3-3-3---1-1-1-1-1-1--6-6-6-6-6-6--|
D|--------------------------6-6-6-6-6-6--|

                       (Repeat until end)
e|--------------------------------------|
B|--------------------------------------|
G|--8-8-8-8-----------6-6-6-6-----------|
D|--8-8-8-8--8-8-8-8--6-6-6-6--6-6-6-6--|
A|--6-6-6-6--8-8-8-8--4-4-4-4--6-6-6-6--|
D|-----------8-8-8-8-----------6-6-6-6--|

After last time, end with this (let ring)
e|-------|
B|-------|
G|---8---|
D|---6---|
A|---6---|
D|-------|

That's it. Great song, pretty easy to learn. Have fun!


| /  slide up
| \  slide down
| h  hammer-on
| p  pull-off
| ~  vibrato
| +  harmonic
| x  Mute note
=============================================================================
comments
print report bad tab
I want to post or [tab]
guest
You may want to rate the tab now too:
select rating
Please do not post tabs as comments. Select "correction" instead!