Oops, an error
Loading. Please wait.

Count On Me Bass Tab

version 2
version 2

Whole song

Interactive

3,106 views 3 this week
no commentswrite comment
1 2 3 4 5
1 last vote to show rating
add to favorites
launch autoscroll
font size
0
reset
guitar tuner
Autoscroll
slow
fast
+/-
esc
set tempo
stop
Help us to improve Ultimate-Guitar.com Take our survey!
×
Author
Difficulty
novice
This is my first tab i done, it took me an hour and a half to do this by ear, it may not 
exactly what he plays but it sounds pretty close you'll have to figure the timing out 
yourself

Intro/Verse    3X
G|-------------9---------------9-----------------|G
D|-------6-7-6---7-------6-7-6---7------6---6----|D
A|---7-7-------------7-7--------------6---6------|A
E|----------------------------------4------------|E

Pre-Chorus    1X
G|--------------------------------------------------------|G
D|--------------------------------------------------------|D
A|--4--4--4--4--1--1--1--1--------------------------------|A
E|--------------------------4--4--4--4--9-9-9-9-9-9-9-9---|E

Chorus    2X
G|----------------------------------------|G
D|----------------------------------------|D
A|--7---7-7-------------------------------|A
E|-----------9---9-9--0---0-0--7---7-7----|E

Pre-Verse    1X
G|------------9------|G
D|------6-7-6---7----|D
A|--7-7--------------|A
E|-------------------|E


Verse         2X

Pre-Chorus    1X

Chorus        2X


Then Play...    1X
G|--------------------------------------------------------|G
D|--------------------------------------------------------|D
A|--4--4--4--4--1--1--1--1--------------------------------|A
E|--------------------------4-4-4-4-4-4-4-4-4-4-4-4-4-4---|E

During Solo Play Chorus        2X

Pre-Chorus                     1X

Then Play Chorus Until The End

And there you have it, please contact me for mistakes.
See Ya!
Suggest correction
Give kudos to tab author, rate the tab!
1 2 3 4 5
comments
print report bad tab
guest
You may want to rate the tab now too:
select rating
Wanna post a correction for this tab? Suggest correction