Oops, an error
Loading. Please wait.

Count On Me Tab

version 3
version 3

Whole song

Interactive

1,903 views 1 this week
no commentswrite comment
1 2 3 4 5
accurate
x 3
add to favorites
launch autoscroll
font size
0
reset
how to read this tab
guitar tuner
Autoscroll
slow
fast
+/-
esc
set tempo
stop
Help us to improve Ultimate-Guitar.com Take our survey!
×
Artist: Default
Song:Count on me
11/18/05

Tune Down A Half step and D-tune

h= hammer on
p= pull off
bd= bend
r= release bend
( )= bend to that note

    Intro/verse
    Eb------------------------------------------------|
    Bb------------------------------------------------|
    Gb--9--9-9---------9-------9--9-9---------9-------|
    Db--9--9-9--6-7-6-----7~~--9--9-9--6-7-6-----7~~--|
    Ab--7--7-7--7-7-7----------7--7-7--7-7-7----------|
    Db------------------------------------------------|

    Eb-------------------------------------------|
    Bb-------------------------------------------|
    Gb----------------------------------9-9-9----|
    Db--9--9-9--9-9-9--9-9--7--7-7-7-7--9-9-9-9--|
    Ab--9--9-9--9-9-9--9-9--7--7-7-7-7--7-7-7-9--|
    Db--9--9-9--9-9-9--9-9--7--7-7-7-7--------9--|

    Prechorus   strum chords
    Eb--------------------------------------------------------------|
    Bb--------------------------------------------------------------|
    Gb--6---------------------4------------------------2------------|
    Db--6---------------------4------------------------2------------|
    Ab--4---------------------2------------------------0------------|
    Db--------------------------------------------------------------|

    Chorus
    Eb-----------------------------------------------------------------|
    Bb-----------------------------------------------------------------|
    Gb--9--9-9-9-9--9-9-9-9-----------------------7--7-7-7-7--7-7-7-7--|
    Db--9--9-9-9-9--9-9-9-9--9--9-9-9-9--9-9-9-9--7--7-7-7-7--7-7-7-7--|
    Ab--7--7-7-7-7--7-7-7-7--9--9-9-9-9--9-9-9-9--5--5-5-5-5--5-5-5-5--|
    Db-----------------------9--9-9-9-9--9-9-9-9--0--------0-----------|

    Eb-----------------------|
    Bb-----------------------|
    Gb-----------------------|
    Db--7--7-7-7-7--7-7-7-7--|
    Ab--7--7-7-7-7--7-7-7-7--|
    Db--7--7-7-7-7--7-7-7-7--|

    Solo
    E--------------------------------------------------------------------------|
    B------------------------h--p---------------------------------h--p---------|
    G-------h----x-x13~-11-11-13-11-11~~----------h---x-x13~-11-11-13-11-11~~--|
    D---h---9-11-x-x-------------------------h---9-11-x-x----------------------|
    A--9-11---------------------------------9-11-------------------------------|
    e--------------------------------------------------------------------------|

    E-----------------------------------------------------------------|
    B------------------------h--p-------------------------------------|
    G--------h---x-x11~-9-9-11-9-9~~------h---x-x14-14-13-13-9--------|
    D---h---9-11-x-x------------------h--9-11-x-x--------------11~----|
    A--9-11--------------------------9-11-----------------------------|
    e-----------------------------------------------------------------|

    E---------------------------------------------------------------------------|
    B----------------bd---------h--p----------------------bd--------------------|
    G--------h---x-x13(15)-11-11-13-11-11~-------h---x-x13(15)-11-11-13-11-11~~-|
    D---h---9-11-x-x------------------------h---9-11-x-x------------------------|
    A--9-11--------------------------------9-11---------------------------------|
    e---------------------------------------------------------------------------|

    E---------------------------------------------------------------------------|
    B-----------------------h--p----------------------------------17----17------|
    G--------h---x-x-11~-9-9-11-9-9~~-------h---x-x14-14-16-16-18----18---------|
    D---h---9-11-x-x-------------------h---9-11-x-x-----------------------------|
    A--9-11---------------------------9-11--------------------------------------|
    e---------------------------------------------------------------------------|

    E--bd-bd-------r--p-----bd-----r--p------|
    B--19-19~~~-(21)19-17~~-19--(20)19-17~~--|
    G----------------------------------------|
    D----------------------------------------|
    A----------------------------------------|
    e----------------------------------------|


    sherpa_182000@yahoo.com
Suggest correction
What's this?
You can suggest a correction to this tab. Community and Mods will review your correction and vote to approve or reject it.
comments
We did not receive enough feedback on this tab! Please rate:
print report bad tab
1 2 3 4 5
guest
You may want to rate the tab now too:
select rating
Please do not post tabs as comments. Select "correction" instead!