Oops, an error
Loading. Please wait.

Deny Bass Tab

version 2
version 2

Whole song

Interactive

301 views 1 this week
no commentswrite comment
1 2 3 4 5
please rate
add to favorites
launch autoscroll
font size
0
reset
guitar tuner
Tab Pro tools
  • play this tab
  • loop segment
  • change instrument
  • show fretboard
  • metronome
×
Best way to learn
"Deny"
Autoscroll
slow
fast
+/-
esc
set tempo
stop
Difficulty
Tuning
novice
D A D G B E
Default - Deny
DADG
No Bass During Intro

Bass comes in at (1:00)
G|-------|
D|-------|
A|-------|
D|-0~~---|

Chorus  (1:04)
G|-----------------------|
D|-----------------------| X2
A|-------------3---------|
D|-5--3--0~-------5--0~--|

Verse  (1:14)
G|--------------------|
D|---------33-22------|  X4
A|---------------3b~--|
D|-00--00-------------|

Chorus  (1:32)
G|-----------------------|
D|-----------------------|  X4
A|-------------3---------|
D|-5--3--0~-------5--0~--|

Verse  (1:51)
G|--------------------|
D|---------33-22------|  X4
A|---------------3b~--|
D|-00--00-------------|

Chorus  (2:09)
G|-----------------------|
D|-----------------------|  X4
A|-------------3---------|
D|-5--3--0~-------5--0~--|

Bridge  (2:30)
G|--------------------|
D|--------------------| X2
A|-5~---3~------------|
D|-----------3~---5~--|

(2:48)
G|---------------------------------------|
D|---------------------------------------|  X1
A|-55555555-33333333---------------------|
D|-------------------33333333--55555555--|

REST


(2:59)
G|-----------------------------------|
D|-----------------------------------|  X1
A|-55555555555555555555555555555555--|
D|-----------------------------------|

Chorus  (3:06)
G|-----------------------|
D|-----------------------|  X4
A|-------------3---------|
D|-5--3--0~-------5--0~--|

Verse  (3:24)
G|--------------------|
D|---------33-22------|  X3
A|---------------3b~--|
D|-00--00-------------|

4th Time  (3:37)
G|-----------------|
D|---------3-2-----|
A|-------------3~--|
D|-00--00----------|
comments
We did not receive enough feedback on this tab! Please rate:
print report bad tab
1 2 3 4 5
I want to post or [tab]
guest
You may want to rate the tab now too:
select rating
Please do not post tabs as comments. Select "correction" instead!