Oops, an error
Loading. Please wait.

Deny Tab

version 6
version 6

Interactive

131 views 1 this week
no commentswrite comment
1 2 3 4 5
3 more votes to show rating
add to favorites
launch autoscroll
font size
0
reset
how to read this tab
guitar tuner
Autoscroll
slow
fast
+/-
esc
set tempo
stop
Help us to improve Ultimate-Guitar.com Take our survey!
×
Tuning
D G C F A D
Default - Deny

Tune D (D,A,D,G,B(H),E)

First tab kinda. It is not just mine but i think it is easier to play
seeing all the notes in order. listen the song and get the rythm

Play and enjoy~

Intro
                        2X
E---------------------------------------------------------------|
B---------------------------------------------------------------|
G---12---10------9----10-9---------2---0-------4----5-4---------|
D---------------------------------------------------------------|
A---------------------------------------------------------------|
D-0----0------10---10------10----3---3------5-----5-----5-------|

Verse 1a         4X
"Today I woke up..."
E---------------------------------------------------------------|
B---------------------------------------------------------------|
G---12---10------2----0--------9---10-9---------9----10-9-------|
D---------------------------------------------------------------|
A---------------------------------------------------------------|
D-0----0------3----3--------10---10-----10---10---10------10----|

Verse 1b
"Can you see this hell I'm livin'?..."
           X3                    (dist.)
E-0-0-0-0/0--0--0-0---------------------------------------------|
B-1-1-1-1/3--3--3-3---------------------------------------------|
G-0-0-0-0/0--0--0-0----------------5----------------------------|
D-2-2-2-2/4--4--4-4----------------5----------------------------|
A-3-3-3-3/5--5--5-5----------------3----------------------------|
D---------------------------------------------------------------|

Fill 1  Dist->
[First time--------------]   [second time------------------------|
E----------------------------------------------------------------|
B----------------------------------------------------------------|
G--7--5--2--5-----------------7--5--2----------------------------|
D--5--5--0--5--3--0-----------5--5--0---3-0-0--------------------|
A--5--3--0--3--3--0-----------5--3--0---3-0-0--------------------|
D--------------3--0---------------------3-0-0--------------------|


Chorus 1           4X
      "Will..."   "you..."
E---------------------------------------------------------------|
B--4-4---------4-4----------------------------------------------|
G--3-3---------3-3--------12--10--------------------------------|
D--0-0---------0-0--------12--10--10----------------------------|
A--0-0---------0-0--------10---8--10----------------------------|
D--0-0---------0-0----------------10----------------------------|


Fill 2
            3X                   4X
E---------------------------------------------------------------|
B---------------------------------------------------------------|
G--7--5--2----5-----------------7--5--2-------------------------|
D--5--5--0----5--3--0-----------5--5--0-----3-0-0---------------|
A--5--3--0----3--3--0-----------5--3--0-----3-0-0---------------|
D----------------3--0-----------------------3-0-0---------------|

Verse 2
                   4X
 "There..."   "goes a piece of me..."
E---------------------------------------------------------------|
B--4-4---------4-4----------------------------------------------|
G--3-3---------3-3--------12--10--------------------------------|
D--0-0---------0-0--------12--10--10----------------------------|
A--0-0---------0-0--------10---8--10----------------------------|
D--0-0---------0-0----------------10----------------------------|

Fill 3
            3X                   4X       dist.ends.
E---------------------------------------------------------------|
B---------------------------------------------------------------|
G--7--5--2----5-----------------7--5--2-------------------------|
D--5--5--0----5--3--0-----------5--5--0----3-3-0-0--------------|
A--5--3--0----3--3--0-----------5--3--0----3-3-0-0--------------|
D----------------3--0----------------------3-3-0-0--------------|

Bridge (Same as Intro, but 4 times)

                        4X
E---------------------------------------------------------------|
B---------------------------------------------------------------|
G---12---10------9----10-9---------2---0-------4----5-4---------|
D---------------------------------------------------------------|
A---------------------------------------------------------------|
D-0----0------10---10------10----3---3------5-----5-----5-------|

Fill 4 dist. ->
            3X                   4X
E---------------------------------------------------------------|
B---------------------------------------------------------------|
G--7--5--2----5-----------------7--5--2-------------------------|
D--5--5--0----5--3--0-----------5--5--0----3-3-0-0--------------|
A--5--3--0----3--3--0-----------5--3--0----3-3-0-0--------------|
D----------------3--0----------------------3-3-0-0--------------|

Ending

               4X
  "Will..."   "you..."           [hold the last note]
E---------------------------------------------------------------|
B--4-4---------4-4----------------------------------------------|
G--3-3---------3-3--------12--10--------------------------------|
D--0-0---------0-0--------12--10--10----------------------------|
A--0-0---------0-0--------10---8--10----------------------------|
D--0-0---------0-0----------------10----------------------------|

Lyrics:

[Intro]

[Verse 1a]
Today I woke up and you were gone.
The whole day wonderin' what I did wrong.
It's like I'm falling from a, a mountain top.
My heart keeps poundin' and it won't stop.

Can you see this,

[Verse 1b]
hell I'm livin'?
I'm not givin' up.

[Fill 1]

[Chorus 1]
Will you crawl to me?
Will you fall with me?
I'll never crawl to you.
I've done it all for you.

[Fill 2]
No, well don't deny,
The hand that feeds you needs you.
I've gotta' die to try to,
Finally please you.

[Verse 2]
There goes a piece of me.
Will I cease to be?
I've never lied to you.
Fought, bled and died for you.

[Fill 3]
No, well don't deny,
The hand that takes you breaks you.
I've gotta' die to try to,
Finally please you.

[Bridge]

[Chorus 1]
Will you crawl with me?
Will you fall with me?
I'll never crawl to you.
I've done it all for you.

[Verse 2]
There she goes and I'm on the ground,
I'm on the ground, I'm on the...
There she goes and I'm on the ground,
I'm on the ground, I'm on the...
There she goes and I'm on the ground,
I'm on the ground, I'm on the...
There she goes and I'm on the ground,
I'm on the ground, I'm on the...

[Fill 4]
No, well don't deny,
The hand that feeds you needs you.
I've gotta' die to try to,
Finally please you.

[Ending]
Will you crawl with me?
Will you fall with me?
I'll never crawl to you.
I've done it all for you.
Suggest correction
Give kudos to tab author, rate the tab!
1 2 3 4 5
comments
print report bad tab
guest
You may want to rate the tab now too:
select rating
Wanna post a correction for this tab? Suggest correction