Oops, an error
Loading. Please wait.

Faded Bass Tab

193 views 1 this week
no commentswrite comment
1 2 3 4 5
1 last vote to show rating
add to favorites
launch autoscroll
font size
0
reset
guitar tuner
Autoscroll
slow
fast
+/-
esc
set tempo
stop
Help us to improve Ultimate-Guitar.com Take our survey!
×
Band- Default
Song- Faded

INTRO (GUITAR PLAYS A BIT THEN THIS)

G-----------|
D-----------|
A-----------|
E-0--3-3-3--|

VERSE/CHORUS

G-------------------------------|
D--4-5-4---5-4/--4-2------------|  REPEAT AS MANY TIMES AS NEEDED
A-5------------2----5-----------|
E--------3------------0---3-3-3-|

BRIDGE

G----------------------------------------|
D----------------------------------------|  REPEAT AS MANY TIME AS NEEDED
A-0--0-0-0-5--5-5-5----------------------|
E-------------------3--3-3-3-2-3-5-0-2-3-|
Suggest correction
Give kudos to tab author, rate the tab!
1 2 3 4 5
comments
print report bad tab
guest
You may want to rate the tab now too:
select rating
Wanna post a correction for this tab? Suggest correction