Oops, an error
Loading. Please wait.

Faded Tab

version 3
version 3

Whole song

209 views 1 this week
no commentswrite comment
1 2 3 4 5
3 more votes to show rating
add to favorites
launch autoscroll
font size
0
reset
how to read this tab
guitar tuner
Autoscroll
slow
fast
+/-
esc
set tempo
stop
Help us to improve Ultimate-Guitar.com Take our survey!
×
Author
-------------------------------------------------------------------------------
                             FADED - Default
-------------------------------------------------------------------------------

Tabbed by: Tyler Greig

Email: gtheleadguitarist@hotmail.com

| /  slide up
| \  slide down
| h  hammer-on
| p  pull-off
| ~  vibrato
| +  harmonic
| x  Mute note


Tuning: standard

Intro/Chorus
|-------------------------------------|  |----|
|-------------------------------------|  |----|
|-------------------------------------|  |----|
|-7-77-7-7-7-----7-7-7-4-44-4-2-2-5-5-|  |-7~-|
|-5-55-5-4-5-5-5-5-4-5-2-22-2-2-2-5-5-|  |-5~-|
|------------3-3--------------0-0-3-3-|x3|----|

Verse- clean (lyrics are lined up with guitar part)

 Hangs on the wall, museum hall as it calls to pass-ers by
|----------------------------------------------------------|
|---------------------------3----3-2-----------------------|
|---------------------------2----2-2----1-------/4---------|
|-7----7---7----------------0---------------2------/5---7--|
|-5----4---5--5~----------------------------------------5--|
|-------------3~-------------------------------------------|x4

Chorus
Verse 2 (same as verse 1)
Chorus


Solo (intro/chorus as rhythm)
|-------------------------------------------------------|
|-------------------------------------------------------|
|-7-7777-6-7-9-7--77-6-7-9-7--77-6-7-9-9999-11-11-12/14-|
|-x-xxxx-x-x-x-x--xx-x-x-x-x--xx-x-x-x-xxxx--x--x--x--x-|
|-5-5555-4-5-7-5--55-4-5-7-5--55-4-5-7-7777--9--9-10/12-|
|-------------------------------------------------------|x2

Solo Part 2
|---------------------------------------|
|-(10)-----10-----10-----10br-8-10-8----|
|------9~-----9~-----9~--------------11-|
|---------------------------------------|
|---------------------------------------|
|---------------------------------------|

|----------------------------------------|
|-(10)-----10-----10-----10br-8----8-----|
|------9~-----9~-----9~---------11---9-7-|
|----------------------------------------|
|----------------------------------------|
|----------------------------------------|

Rhythm for solo part 2
|-----------------------------------------------------------------------------|
|-----------------------------------------------------------------------------|
|-----------------------------------------------------------------------------|
|-14-1414141414-14141414\7-77777-7777/14-1414141414-14141414/16-14-13-9-11-12-|
|-12-1212121212-12121212\5-55555-5555/12-1212121212-12121212/14-12-11-7--9-10-|
|-----------------------------------------------------------------------------|x2

Chorus
Chorus x3 (End on only one G)

There you go, it's a pretty simple song. :) Enjoy.

===============================================================================
Suggest correction
Give kudos to tab author, rate the tab!
1 2 3 4 5
comments
print report bad tab
guest
You may want to rate the tab now too:
select rating
Wanna post a correction for this tab? Suggest correction