Oops, an error
Loading. Please wait.

I Cant Win Tab

version 1
version 1

Whole song

502 views 1 this week
no commentswrite comment
1 2 3 4 5
2 more votes to show rating
add to favorites
launch autoscroll
font size
0
reset
how to read this tab
guitar tuner
Autoscroll
slow
fast
+/-
esc
set tempo
stop
Help us to improve Ultimate-Guitar.com Take our survey!
×
Author
Tuning
C G C F A D
Ok this is the first tab I made from scratch and there's a
chace that it might be a bit off in some spots, but seeing
as this song has no full tabs bear with me. feel free to
take my tab and make any adjustments you see fit to it

Tuning: 
Drop C: CGCFAd

Key:
/ = slide
(low distortion) = this can be done how you want to but for me i flip the pick up
changing switch over to the one the second closest to the neck, at all other times
i keep it at the pick up furthest from the neck

Intro x14
D|--------------------------------------------------------|
A|--------------------------------------------------------|
F|--------------------------------------------------------|
C|--------------------------------------------------------|
G|-----5-8-5---0-3/5-3-5--0----3--------------------------|
C|-----------0--------------3-5---------------------------|


Fill In
D|-------|
A|-------|
F|-------|
C|--0----|
G|--0----|
C|--0----|


Chorus 
D|-------------------------------------------------------|------------------|
A|-------------------------------------------------------|------------------|
F|-7-7---7-7---7-7---5-5---5-5---5-5---4-4---4-4---4-4---|-5—-5-5-----------|
C|-7-7---7-7---7-7---5-5---5-5---5-5---4-4---4-4---4-4---|-5--5-5-----------|
G|-5-5-0-5-5-0-5-5-0-3-3-0-3-3-0-3-3-0-2-2-0-2-2-0-2-2-0-|-3--3-3--5-5-5—-3-|
C|-----0-----0-----0-----0-----0-----0-----0-----0-----0-|---------5-5-5—-3-|

D|-------------------------------------------------------|---------------|
A|-------------------------------------------------------|---------------|
F|-7-7---7-7---7-7---5-5---5-5---5-5---4-4---4-4---4-4---|-5—-5----------|
C|-7-7---7-7---7-7---5-5---5-5---5-5---4-4---4-4---4-4---|-5--5----------|
G|-5-5-0-5-5-0-5-5-0-3-3-0-3-3-0-3-3-0-2-2-0-2-2-0-2-2-0-|-3--3---5--—-3-|
C|-----0-----0-----0-----0-----0-----0-----0-----0-----0-|--------5--—-3-|


Intro x12
D|--------------------------------------------------------|
A|--------------------------------------------------------|
F|--------------------------------------------------------|
C|--------------------------------------------------------|
G|-----5-8-5---0-3/5-3-5--0----3--------------------------|
C|-----------0--------------3-5---------------------------|


Fill In
D|-------|
A|-------|
F|-------|
C|--0----|
G|--0----|
C|--0----|


Chorus 
D|-------------------------------------------------------|------------------|
A|-------------------------------------------------------|------------------|
F|-7-7---7-7---7-7---5-5---5-5---5-5---4-4---4-4---4-4---|-5—-5-5-----------|
C|-7-7---7-7---7-7---5-5---5-5---5-5---4-4---4-4---4-4---|-5--5-5-----------|
G|-5-5-0-5-5-0-5-5-0-3-3-0-3-3-0-3-3-0-2-2-0-2-2-0-2-2-0-|-3--3-3--5-5-5—-3-|
C|-----0-----0-----0-----0-----0-----0-----0-----0-----0-|---------5-5-5—-3-|

D|-------------------------------------------------------|---------------|
A|-------------------------------------------------------|---------------|
F|-7-7---7-7---7-7---5-5---5-5---5-5---4-4---4-4---4-4---|-5—-5----------|
C|-7-7---7-7---7-7---5-5---5-5---5-5---4-4---4-4---4-4---|-5--5----------|
G|-5-5-0-5-5-0-5-5-0-3-3-0-3-3-0-3-3-0-2-2-0-2-2-0-2-2-0-|-3--3---5--—-3-|
C|-----0-----0-----0-----0-----0-----0-----0-----0-----0-|--------5--—-3-|


Fill In
D|-------|
A|-------|
F|-------|
C|--0----|
G|--0----|
C|--0----|


Verse 2 (low distortion)
D|--------------------------------------------------------------|
A|--------------------------------------------------------------|
F|--------------------------------------------------------------|
C|--7--7-7-7--7-7-7--5--5-5-5--5-5-5--4--4-4-4--4-4-4------7----|  x2
G|--5--5-5-5--5-5-5--3--3-3-3--3-3-3--2--2-2-2--2-2-2--0-7-5-0--|
C|-----------------------------------------------------0-7---0--|

D|--------------------------------------------------------|
A|--------------------------------------------------------|
F|--------------------------------------------------------|
C|--------7---5-------5--4--------------------------------|
G|--0--7--5---3---5---3--2--5-----5-4--0------------------|
C|--0--7----------5---------5-----5-4--0------------------|

D|--------------------------------------------------------|
A|--------------------------------------------------------|
F|--------------------------------------------------------|
C|--------7---5----5---5--4-------------------------------|
G|--0--7--5---3-0--3---3--2--5-----5-4--0-----------------|
C|--0--7--------0------------5-----5-4--0-----------------|


Intro x2
D|--------------------------------------------------------|
A|--------------------------------------------------------|
F|--------------------------------------------------------|
C|--------------------------------------------------------|
G|-----5-8-5---0-3/5-3-5--0----3--------------------------|
C|-----------0--------------3-5---------------------------|


Chorus x2
D|-------------------------------------------------------|------------------|
A|-------------------------------------------------------|------------------|
F|-7-7---7-7---7-7---5-5---5-5---5-5---4-4---4-4---4-4---|-5—-5-5-----------|
C|-7-7---7-7---7-7---5-5---5-5---5-5---4-4---4-4---4-4---|-5--5-5-----------|
G|-5-5-0-5-5-0-5-5-0-3-3-0-3-3-0-3-3-0-2-2-0-2-2-0-2-2-0-|-3--3-3--5-5-5—-3-|
C|-----0-----0-----0-----0-----0-----0-----0-----0-----0-|---------5-5-5—-3-|

D|-------------------------------------------------------|---------------|
A|-------------------------------------------------------|---------------|
F|-7-7---7-7---7-7---5-5---5-5---5-5---4-4---4-4---4-4---|-5—-5----------|
C|-7-7---7-7---7-7---5-5---5-5---5-5---4-4---4-4---4-4---|-5--5----------|
G|-5-5-0-5-5-0-5-5-0-3-3-0-3-3-0-3-3-0-2-2-0-2-2-0-2-2-0-|-3--3---5--—-3-|
C|-----0-----0-----0-----0-----0-----0-----0-----0-----0-|--------5--—-3-|


End On
D|-------|
A|-------|
F|-------|
C|--0----| and let it ring
G|--0----|
C|--0----|
Suggest correction
Give kudos to tab author, rate the tab!
1 2 3 4 5
comments
print report bad tab
guest
You may want to rate the tab now too:
select rating
Wanna post a correction for this tab? Suggest correction