Oops, an error
Loading. Please wait.

It Only Hurts Bass Tab

version 1
version 1

Whole song

Interactive

712 views 1 this week
no commentswrite comment
1 2 3 4 5
please rate
add to favorites
launch autoscroll
font size
0
reset
guitar tuner
Tab Pro tools
  • play this tab
  • loop segment
  • change instrument
  • show fretboard
  • metronome
×
Best way to learn
"It Only Hurts"
Autoscroll
slow
fast
+/-
esc
set tempo
stop
Contributor
Difficulty
-------------------------------------------------------------------------------
			     It Only Hurts - Default
-------------------------------------------------------------------------------

Tabbed By : usernametaken27
e-mail: billybobbillybobjoe2000@yahoo.com

Tuning: Standard

Intro/Chorus
G|-------------------------------------------------------------------------|
D|-------------------------------------------------------------------------|
A|-------------------------------------------------------------------------|
E|--0-2-4-5555555--9999999--0-2-4-5555555-9999-7777------------------------|

G|-------------------------------------------------------------------------|
D|-------------------------------------------------------------------------|
A|-------------------------------------------------------------------------|
E|-0-2-4-5555555-9999999-777777777777--------------------------------------|

G|-------------------------------------------------------------------------|
D|-------------------------------------------------------------------------|
A|---2-------------------2-------------------------------------------------|
E|-0--2-4-5-4-2-00-2-2-0--2-4-5-4-2-0000-2222------------------------------|

Verse
G|-------------------------------------------------------------------------|
D|-------------------------------------------------------------------------|
A|-------------------------------------------------------------------------|
E|-00-2-44-2-4-77-7-00-2-44-2-4-77-7-0-2-44-2-4--77-7-0-2-44-2-------------|

Pre-Chorus
G|-------------------------------------------------------------------------|
D|-------------------------------------------------------------------------|
A|-------------------------------------------------------------------------|
E|-55555555-77777777-55555555-9999999999999--------------------------------|

Intro/Chorus

Bridge
G|-------------------------------------------------------------------------|
D|-------------------------------------------------------------------------|
A|-------------------------------------------------------------------------|
E|-9999999-7777777-55555555-7777777-9999999-7777777-5555555-777777-99-10-12|

Intro/Chorus


| /  slide up
| \  slide down
| h  hammer-on
| p  pull-off
| ~  vibrato
| +  harmonic
| x  Mute note
===============================================================================
comments
We did not receive enough feedback on this tab! Please rate:
print report bad tab
1 2 3 4 5
I want to post or [tab]
guest
You may want to rate the tab now too:
select rating
Please do not post tabs as comments. Select "correction" instead!