Oops, an error
Loading. Please wait.

It Only Hurts Tab

version 1
version 1

Solo

Whole song

Interactive

7,515 views 27 this week
4 commentsread comments
1 2 3 4 5
accurate
x 3
add to favorites
launch autoscroll
font size
0
reset
how to read this tab
guitar tuner
Tab Pro tools
  • play this tab
  • loop segment
  • change instrument
  • show fretboard
  • metronome
Autoscroll
slow
fast
+/-
esc
set tempo
stop
Contributor
play through first verse

    Dm                                         F                          C
---------------------------1--1-1-1-1---3-3-3--------------------------------|
--------6------------------1--1-1-1-1---3-3-3--------------------------------|
-----------------5---------2--2-2-2-2---5-5-5--------------------------------|
--- 7------7--8-----8--7---3--3-3-3-3---5-5-5--------------------------------|
----5----------------------3--3-3-3-3---3-3-3--------------------------------|
----5----------------------1--1-1-1-1---3-3-3--------------------------------|
                                                  V    V V V   ^     V  V  V


Dm                        F       C      
Can hold my breath only for a little while 
Dm                F         C
'til reality starts sinking in
Dm                  F       C      
once again i'm settling for second best 
Dm                 F       C      
turn the pages skip to the end 

Bb                        Dm                   Bb                         
to where i swore that i would try since the last time 
       C          
i crossed that line in the back of my mind i know 
Dm      F               C
it only hurts when your eyes are open 
Dm      F             C       
lies get tossed and truth is spoken 
Dm      F               C   
it only hurts when that door gets open 
Bb                    
dreams are lost and hearts are broken


    Dm                                         F                          C
---------------------------1--1-1-1-1---3-3-3--------------------------------|
--------6------------------1--1-1-1-1---3-3-3--------------------------------|
-----------------5---------2--2-2-2-2---5-5-5--------------------------------|
--- 7------7--8-----8--7---3--3-3-3-3---5-5-5--------------------------------|
----5----------------------3--3-3-3-3---3-3-3--------------------------------|
----5----------------------1--1-1-1-1---3-3-3--------------------------------|
                                                  V    V V V   ^     V  V  V
X2


Dm                  F       C      
miles away promise from a burning bed 
Dm                  F       C      
two worlds should never collide
Dm                  F       C      
one word would end it if you ever heard 
Dm                  F       C      
tear the page out that reminds me 
Bb                   Dm                 Bb                         
when i swore that i'd be strong now the next time has 
C
come and gone well maybe i'm wrong i know

Dm      F               C
it only hurts when your eyes are open 
Dm      F             C       
lies get tossed and truth is spoken 
Dm      F               C   
it only hurts when that door gets open 
Bb                    
dreams are lost and hearts are broken

Dm                  C                     Bb
i know what your feeling it's hard to believe in someone, 
  C
someone who's not there 
 Dm                 C                          Gm 
i know that your waiting 'cause love is worth saving but only for so 
  Bb
long, so long, so long

Guitar Solo
e---------------------------------------------------------------------------|
B----6-6/8-6---------------------------6-6/8-6-----------5-6/8-8-6-5-3------|
G-------------5-5/7-5---------------------------5-5/7-5---------------------|
D----------------------5-5/7-5----------------------------------------------|
A-------------------------------8-7h8---------------------------------------|
E---------------------------------------------------------------------------|

e---------------------------------------------------------------------------|
B----6-6/8-6----------------------------------------------------------------|
G-------------5-5/7-5-------------------------------------------------------|
D----------------------5-5/7-5----------------------------------------------|
A-------------------------------8-7h8---------------------------------------|
E---------------------------------------------------------------------------|


Bb                   Dm            Bb                         
i swore that i would try since the last time, the last time

    Dm                                         F                          C
---------------------------1--1-1-1-1---3-3-3--------------------------------|
--------6------------------1--1-1-1-1---3-3-3--------------------------------|
-----------------5---------2--2-2-2-2---5-5-5--------------------------------|
--- 7------7--8-----8--7---3--3-3-3-3---5-5-5--------------------------------|
----5----------------------3--3-3-3-3---3-3-3--------------------------------|
----5----------------------1--1-1-1-1---3-3-3--------------------------------|
                                                  V    V V V   ^     V  V  V
X2

Dm      F               C
it only hurts when your eyes are open 
Dm      F             C       Gm
lies get tossed and truth is spoken 
Dm      F               C   
it only hurts when that door gets open 
Bb                    
dreams are lost and hearts are broken

Dm      F               C
it only hurts when your eyes are open 
Dm      F             C       Gm
lies get tossed and truth is spoken 
Dm      F               C   
it only hurts when that door gets open 
Bb                    
dreams are lost and hearts are broken
comments
We did not receive enough feedback on this tab! Please rate:
print report bad tab
1 2 3 4 5
4 comments total. Showing first comments.
0 reply
acdcacdc wrote on August 31 2006, 03:42 am

im not gonna say its a bad tab but im not gonna say its good either.
the tuning should be drop d and first not should be open on the D and the A strings. how about i just show u

e----------------------------------------------------
B----6-------------------------------------------------
G----------5------5-5-5--5-5-5------------------------------
D------7-8---8-7--3-3-3--5-5-5--------------------------------------A-0---------------3-3-3--3-3-3----------------------------
D-0---------------3-3-3------------------------------------

that should be little closer to right. but anyway thanks for starting the tab

0 reply
acdcacdc wrote on August 31 2006, 03:45 am

i'll try this again

e----------------------------------------
B----6-----------------------------------
G----------5-------5-5-5--5-5-5----------
D------7-8---8-7---3-3-3--5-5-5----------
A-0----------------3-3-3--3-3-3----------
D-0----------------3-3-3-----------------

0 reply
acdcacdc wrote on August 31 2006, 03:49 am

sorry for the first misprint i meant "first note"

I want to post or [tab]
guest
You may want to rate the tab now too:
select rating
Please do not post tabs as comments. Select "correction" instead!