Oops, an error
Loading. Please wait.

Let You Down Tab

version 1
version 1

Acoustic

Whole song

1,084 views 6 this week
no commentswrite comment
1 2 3 4 5
please rate
add to favorites
launch autoscroll
font size
0
reset
how to read this tab
guitar tuner
Autoscroll
slow
fast
+/-
esc
set tempo
stop
Help us to improve Ultimate-Guitar.com Take our survey!
×
Author
I was playing around with my own tab and found some things to make it better.
Could you add this version over my last one?

Artist: Default 
Title:  Let You Down
Album:  The Fallout
Transcribed by: Trent Adams       

While this is the tab for the acoustic version I heard 
Default play on the radio, it works with the CD 
version as well.

Dropped "D" Tuning

Intro/Verses

E|-----------------|
B|-----------------|  
G|-6-6---7-4---2---|
D|-0-0---0-0---0---|
A|-0-0---0-0---0---|
E|-0-0-0-0-0-0-0---|

Chorus Strumming (upstoke, downstoke, upstoke, downstoke, etc.)

E|----------------------------------------------------------------------|  
B|----------------------------------------------------------------------|  
G|----------6-6-7-7-----------6-6-7-7--9-9-9-9-7-7-7-7-9b(10)b9-7-7-7-7-|
D|-9-9-9-9--7-7-7-7--9-9-9-9--7-7-7-7--0-0-0-0-0-0-0-0-0--0---0-0-0-0-0-|
A|-5-5-5-5--5-5-5-5--5-5-5-5--5-5-5-5--0-0-0-0-0-0-0-0----------0-0-0-0-|
E|-5-5-5-5--5-5-5-5--5-5-5-5--5-5-5-5--0-0-0-0-0-0-0-0----------0-0-0-0-|

Fill 1

E|---------------------------|
B|---------------------------|
G|-6-6-4--1---1---1-2-2s4s2--|
D|-0-0-0--0---0---0-0-0-0-0--|
A|-x-x-x--x------------------|
E|-7-7-5--2-2---2----------0-|

Bridge

E|----------------------------------|----------------------------------|
B|----------------------------------|----------------------------------|
G|----------------------------------|----------------------------------|
D|9-9--9-9--9-9-9-9-9-9-9-9---------|9-9--9-9--9-9-9-9-9-9-9-9---------|
A|9-10-9-10-9-9-9-9-9-9-9-9---------|9-10-9-10-9-9-9-9-9-9-9-9---------|
E|9-9--9-9--9-9-9-9-9-9-9-9---------|9-9--9-9--9-9-9-9-9-9-9-9---------|

E|----------------------------------|----------------------------------|
B|----------------------------------|----------------------------------|
G|----------------------------------|----------------------------------|
D|7-7-7-7-7-7-7-7-7-7-7-7-7---------|7-7-7-7-7-7-7-7-7-7-7-7-7---------|
A|7-9-7-9-7-7-7-7-7-7-7-7-7---------|7-9-7-9-7-7-7-7-7-7-7-7-7---------|
E|7-7-7-7-7-7-7-7-7-7-7-7-7---------|7-7-7-7-7-7-7-7-7-7-7-7-7---------|

E|----------------------------------|----------------------------------|
B|----------------------------------|----------------------------------|
G|----------------------------------|----------------------------------|
D|9-9--9-9--9-9-9-9-9-9-9-9---------|9-9--9-9--9-9-9-9-9-9-9-9---------|
A|9-10-9-10-9-9-9-9-9-9-9-9---------|9-10-9-10-9-9-9-9-9-9-9-9---------|
E|9-9--9-9--9-9-9-9-9-9-9-9---------|9-9--9-9--9-9-9-9-9-9-9-9---------|

E|----------------------------------|----------------------------------|
B|----------------------------------|----------------------------------|
G|----------------------------------|----------------------------------|
D|7-7-7-7-7-7-7-7-7-7-7-7-7---------|7-7-7-7-7-7-7-7-7-7-7-7-7---------|
A|7-9-7-9-7-7-7-7-7-7-7-7-7---------|7-9-7-9-7-7-7-7-7-7-7-7-7---------|
E|7-7-7-7-7-7-7-7-7-7-7-7-7---------|7-7-7-7-7-7-7-7-7-7-7-7-7---------|

Strumming with mutes

E|---------------------------------------------|
B|---------------------------------------------|
G|---------------------------------------------|
D|7-7-7ss-5-x-5--5-5-5ss-2-x-2-2-0-0-0-0-0-0-0-|
A|7-7-7ss-5-x-5--5-5-5ss-2-x-2-2-0-0-0-0-0-0-0-|
E|7-7-7ss-5-x-5--5-5-5ss-2-x-2-2-0-0-0-0-0-0-0-|

Song Pattern

Intro/Verse 1 X 5 times with Verse 1 starting on 2nd time
Chorus X 2 times
Fill 1
Verse 2 X 4 times
Chorus X 2 times
Bridge
Chorus X 3 times
Fill 1
Suggest correction
Give kudos to tab author, rate the tab!
1 2 3 4 5
comments
print report bad tab
guest
You may want to rate the tab now too:
select rating
Wanna post a correction for this tab? Suggest correction