Oops, an error
Loading. Please wait.

Little Too Late Tab

version 2
version 2

Whole song

1,329 views 6 this week
no commentswrite comment
1 2 3 4 5
3 more votes to show rating
add to favorites
launch autoscroll
font size
0
reset
how to read this tab
guitar tuner
Autoscroll
slow
fast
+/-
esc
set tempo
stop
Help us to improve Ultimate-Guitar.com Take our survey!
×
Author
Difficulty
novice
Intro
e|------0-----0-----0-----0-------------|
B|----0-----0-----0-----0-----0---0-----|
G|-11-----9-----9-----9-----8---9-------| x2
D|--------------------------------------|
A|--------------------------------------|
E|--------------------------------------|

Verse
e|------0-----0-----0-----0-------------|
B|----0-----0-----0-----0-----0---0-----|
G|-11-----9-----9-----9-----8---9-------| x4
D|--------------------------------------|
A|--------------------------------------|
E|--------------------------------------|

        (strum chords)
e|--0---0---0---0-------|
B|--0---0---0---0-------|
G|--1---2---6---2-------|
D|--2---2---6---2-------|
A|--2---0---4---0-------|
E|--0-------------------|

Pre-Chorus (strum chords)
e|--0---0---0---0-------|
B|--0---0---0---0-------|
G|--6---2---4---2-------|
D|--6---2---4---2-------|
A|--4---0---2---0-------|
E|----------------------|

Chorus (strum chords)
e|--0---0---0---0-------|
B|--0---0---0---0-------|
G|--1---4---2---2-------|
D|--2---4---4---2-------| x2
A|--2---2---4---0-------|
E|--0-------------------|

e|--0---0---0--0---0---0~---|
B|--0---0---0--0---0---0~---|
G|--9---8---6--4---1---2~---|
D|--9---8---6--4---2---2~---|
A|--7---6---4--2---2---0~---|
E|--0-----------------------|

Bridge (strum chords)
e|--2---0---0---2---0---0---|
B|--3---0---0---3---0---0---|
G|--2---2---1---2---2---4---|
D|--0---4---2---0---4---4---|
A|------4---2-------4---2---|
E|--------------------------|

e|--0~--0~--0~-----------|
B|--0~--0~--0~-----------|
G|--2~--2~--4~-----------|
D|--4~--2~--4~-----------|
A|--4~--0~--2~-----------|
E|-----------------------|

Outro
e|--0---0---0---0---0~---|
B|--0---0---0---0---0~---|
G|--1---2---4---2---1~---|
D|--2---4---6---2---2~---|
A|--2---4---6---0---2~---|
E|--0---------------0~---|

Song Order:
Intro – Verse – Pre-Chorus – Chorus – Verse – Pre-Chorus – Chorus – Bridge – Chorus - Outro
Suggest correction
Give kudos to tab author, rate the tab!
1 2 3 4 5
comments
print report bad tab
guest
You may want to rate the tab now too:
select rating
Wanna post a correction for this tab? Suggest correction