Oops, an error
Loading. Please wait.

Live A Lie Bass Tab

328 views 1 this week
no commentswrite comment
1 2 3 4 5
3 more votes to show rating
add to favorites
launch autoscroll
font size
0
reset
guitar tuner
Autoscroll
slow
fast
+/-
esc
set tempo
stop
Help us to improve Ultimate-Guitar.com Take our survey!
×
Band- Default
Song- Live A Lie

Tuning: E,A,D,G

Intro:
G/------------------------------------------------------|
D/------------------------------------------------------|
A/-5-5-5-5-----------5-5-5-5----------------------------|
E/----------1-1-1-1-----------1-1-1-1---1h3--3-3-3------|


Verse:
G/----------------------------------------------------------------|
D/----------------------------------------------------------------|
A/-5--5-5--5---8-8--8--8---5--5--5---5--8-8--8---8--8h10-10-10----|
E/----------------------------------------------------------------|


Chorus:  
(Ohh i live a lie..)
G/--------------------------------------------------------------------|
D/--------------------------------------------------------------------|
A/--------------------------------------------------------------------|
E/-3-3--3--3--3--3--1--1--1--1---1---3-3---3--3---3---1--1---1--1-----|

 
(I've been leavin thoughts below...)
G/--------------------------------------------------|
D/--------------------------------------------------|
A/--------------------------------------------------|
E/-3--3--3--5--5---5--5---1--1---1---1---1----1-----|


short interlude after the first chorus
G/--------------------------------------|
D/--------------------------------------|
A/-5--5-5--5---8-8--8-8--8h10--10--10---|
E/--------------------------------------|


heres the little fill he does right before the bridge
G/-----------|---------------------------------------------------------|
D/-----------|---------------------------------------------------------|
A/-----------|---------------------------17--15--14--15--14------------|
E/---*3------|--15--15--15--15----15h17----------------------17--15----|
*hold this note out, its at the
 end the chorus right before the
 bridge. play at 2:11


Bridge / Guitar solo:  
(bridge 2:17,  guitar solo 2:42)
G/-------------------------------------------------------------------------|
D/-------------------------------------------------------------------------|
A/-1-1-1-1-1-1-1-1--5-5-5-5-5-5-5-5--3-3-3-3-3-3-3-3-----------------------|
E/----------------------------------------------------5-5-5-5-5-5-5-5------|

 


Suggest correction
Give kudos to tab author, rate the tab!
1 2 3 4 5
comments
print report bad tab
guest
You may want to rate the tab now too:
select rating
Wanna post a correction for this tab? Suggest correction