Oops, an error
Loading. Please wait.

Live A Lie Tab

version 3
version 3

Whole song

476 views 1 this week
1 commentread comment
1 2 3 4 5
please rate
add to favorites
launch autoscroll
font size
0
reset
how to read this tab
guitar tuner
Autoscroll
slow
fast
+/-
esc
set tempo
stop
Help us to improve Ultimate-Guitar.com Take our survey!
×
Contributor
Difficulty
intermediate
Intro + verse
Guitar 1
|------------------------------------------------|
|------------------------------------------------|
|--------------5-----------------2------2p0------|
|-7-----7-7-7-----3--5--3----3---3----------3h5--|
|-5----------------------------------------------|
|------------------------------------------------|

|--------------------------------------------------|
|--------------------------------------------------|
|--------------5-------------2--2-2s4--4--4-5p4--4-|
|-7-----7-7-7-----3--5--3----3--3-3s5--5--5-5-5--5-|
|-5------------------------------------------------|
|--------------------------------------------------|

Guitar 2 (acoustic)
|------------------------------------------------------------|
|-3-----------------------------1----------------------------|
|-2-----------------------------2----------------------------|
|-0-----------------------------3----------------------------|
|-0-----------------------------3----------------------------|
|-------------------------------1----------------------------|

Chorus
Guitar 1
|--------0-----------0-----------1-----------1------|
|---------------------------------------------------|
|----2------2----2------2------2------2---2------2--|
|-0------------0------------3-----------3-----------|
|---------------------------------------------------| x2
|---------------------------------------------------| 
these are played quite fast

Guitar 2 just strum chords

then both guitars
|--------3--3------------|
|-3--3---3--3---1--1--1--|
|-2--2---0--0---2--2--2--|
|-0--0---2--2---3--3--3--|
|-0--0---3--3---3--3--3--|
|---------------1--1--1--| x 2 second time let chord ring

Post chorus
Guitar 2 play second half of intro

Interlude
|---|
|-3-|
|-4-|
|-5-| play once then strum getting louder
|-5-|
|-3-|

|---------------------------------------|
|---------------------------------------|
|-3--3--3---2--2--2---5--5--5---2--2--2-|
|-3--3--3---2--2--2---5--5--5---2--2--2-|
|-1--1--1---0--0--0---3--3--3---0--0--0-|
|---------------------------------------| x 2

Solo
|-----1-------1-3-5p3--1-3--1--0h1p0-----1-3-5-7b8-8-8-----5-5-5-5vb-|
|--1-3----1-3-------------------------3----------------8-6-----------|
|-2-----2------------------------------------------------------------|
|--------------------------------------------------------------------|
|--------------------------------------------------------------------|
|--------------------------------------------------------------------|

|------------------13-13-13-12-12-13-12-10--8-|
|---------------------------------------------|
|------7-10------7----------------------------|
|-7-10------7-10------------------------------|
|---------------------------------------------|
|---------------------------------------------|

|---------------------------------------------|
|---------------------------------------------|
|----------10h12--14p12--10-12-10-14----------|
|-10h12-----------------------------------14--|
|---------------------------------------------|
|---------------------------------------------|

Piano Outro
comments
We did not receive enough feedback on this tab! Please rate:
print report bad tab
1 2 3 4 5
1 comment total.
0 reply
Teen Spirit 3,022 wrote on April 10 2008, 01:34 pm

wow you really are quick aren't you? ;)
I know I'm all over the place, I'm like the UG post-grunge patrolman :D fantastic tab. Great song, isn't it? sounds really similar to Nickelback tho ;) especially the interlude

I want to post or [tab]
guest
You may want to rate the tab now too:
select rating
Please do not post tabs as comments. Select "correction" instead!