Oops, an error
Loading. Please wait.

Memory Will Never Die Bass Tab

526 views 1 this week
no commentswrite comment
1 2 3 4 5
please rate
add to favorites
launch autoscroll
font size
0
reset
guitar tuner
Autoscroll
slow
fast
+/-
esc
set tempo
stop
Help us to improve Ultimate-Guitar.com Take our survey!
×
Author
Memory Will never die
tabbed by: kr
  mail me for any problems you encounter regarding the tab at ragnaboykelvin@yahoo.com

This is my first tab so there will surely be alot of corrections:))
You can find out the timing by yourself....
Standard Tuning EADG
Intro/Verse:
G|----------------------|-----------------|------------------|---------------|
D|----2--2-2-2--5-------|------6-6-6------|------------------|----2-2----3---|
A|--3--------------5----|----5-------5----|----2--2-2-2-2-5--|-------------3-|
E|----------------------|-5------------5--|--3--------------3|--1-----1------|


Deep inside your soul, im always there.....
G|--------------------|---------------|
D|-----------------0--|3-3-3-3-3-3-3--|
A|-5-5-5-5-5-5-5------|--------------0|
E|--------------------|---------------|
Chorus:
You made me believe......
G|-----------------|----------------|----------------|-----------------|
D|-----------------|----------------|----------------|-----------------|
A|-3-3-3-3-3-3-3---|---------------0|2-2-2-2-2-2-2-0-|7-7-7-7-7-7-0-2--|
E|----------------0|-3-3-3-3-3-3-3--|----------------|----------------3|
2x

Interlude?not sure
Whenver you wake up......./The bed that you lay........
G|----------------|---------------|----------------|----------------|
A|----------------|---------------|----------------|----------------|2x
D|----------------|---------------|---------------0|-2-2-2-2-2-2-2--|
E|-1-1-1-1-1-1-1-2|3-3-3-3-3-3-3-2|-0-0-0-0-0-0-0--|---------------0|

Guitar Solo:
Play the intro
Suggest correction
Give kudos to tab author, rate the tab!
1 2 3 4 5
comments
print report bad tab
guest
You may want to rate the tab now too:
select rating
Wanna post a correction for this tab? Suggest correction