Oops, an error
Loading. Please wait.

One Late Night Tab

version 2
version 2

Whole song

Interactive

594 views 1 this week
2 commentsread comments
1 2 3 4 5
2 more votes to show rating
add to favorites
launch autoscroll
font size
0
reset
how to read this tab
guitar tuner
Autoscroll
slow
fast
+/-
esc
set tempo
stop
Help us to improve Ultimate-Guitar.com Take our survey!
×
Author
Tabbers playing skills
advanced ++
One Late Night-Default
The Fallout

E A D G B E


Intro:

gtr. 1 (acous.)

e-2-----0------------3------------3-------------
b-3-----3------------3------------3-------------
g-2-----0------------0------------0-------------
d-0-----2------------2------------0-------------
a-------0------------3------------2-------------
e---------------------------------3-------------

gtr. 2 (elec.)

e-3-2-0-0-----0--------------0----3------0------
b-3-3-3-3-------3--------3-----3--3--------3----
g-2-2-2-0------------------0------0----------0--
d-0-0-0-2---------0----2----------0-------------
a-------0------------3------------x-------------
e---------------------------------3----3--------

gtr. 1 (acous.)

e-2-----0------------3------------3-------------
b-3-----3------------3------------3-------------
g-2-----0------------0------------0-------------
d-0-----2------------2------------0-------------
a-------0------------3------------2-------------
e---------------------------------3-------------

gtr. 2 (elec.)

e-3-2-0-0-----0--------------0----3-------------
b-3-3-3-3-------3--------3-----3--3-------------
g-2-2-2-0------------------0------0-------------
d-0-0-0-2---------0----2----------0-------------
a-------0------------3------------x-------------
e---------------------------------3-------------

Verses: Play intro

Chorus:

gtr. 3

e-----------------------------------------------------------------
b-8--7------7---------------10\8-7------h8---------7--------------
g-7--7---9---------7--------11\9-7------h9---------7--------------
d-9--7------------------------------------------------------------
a-----------------------------------------------------------------
e-----------------------------------------------------------------

gtr. 4

e-----------------------------------------------------------------
b-----------------------------------------------------------------
g-4--2----------------------------------------------------4p2-----
d-0--0------4------2---------4--2--------h2--------0--------------
a-----------0------0---------2--2---------x--------x--------------
e-----------------------------------------3--------3--------------

Solo:

e---------------------------------------------------------
b-h12-10---h8----7-7--------------------------------------
g-----------------------7-7h9--7----------------------0---
d----------------------------------9-7-h9-----7----7------
a---------------------------------------------------------
e---------------------------------------------------------

e---------------------------------------------------------
b-h12-10---h8----7~~~~~-----------------------------------
g-----------------------7-7--h9--7--x---------------------
d---------------------------------------------------------
a-------------------------------------/7-----5-5~~~~--5-5-
e---------------------------------------------------------

e-----------------------------------------------------------------
b-----------------------------------------------------10----------
g--------------------------------------7-------9h11--------11--9--
d----------------------------------------9------------------------
a-7--5--/9--7---p5-----------5---5-7/9----------------------------
e------------------7~~~~-5h7---7----------------------------------

e-----------------------------------------------------------------
b-----------------------------------------------------------------
g--h9---7---------------------------------------------------------
d------------0-0-7/9----------------------------------------------
a-----------------------------------------------------------------
e-----------------------------------------------------------------


that’s all

trevor jones
timmy91199@yahoo.ca
Suggest correction
Give kudos to tab author, rate the tab!
1 2 3 4 5
comments
print report bad tab
2 comments total.
0 reply
tza 3,422 Sep 13, 2002 12:00 AM

this is my tab, it was submitted while i wasn't logged in

-tza

-1 reply
afghanistan 10 Jan 02, 2003 12:00 AM

shut your mouth. no one cares about your crappy tabs because they suck

guest
You may want to rate the tab now too:
select rating
Wanna post a correction for this tab? Suggest correction