Oops, an error
Loading. Please wait.

Seize The Day Bass Tab

1,215 views 1 this week
no commentswrite comment
1 2 3 4 5
3 more votes to show rating
add to favorites
launch autoscroll
font size
0
reset
guitar tuner
Autoscroll
slow
fast
+/-
esc
set tempo
stop
Help us to improve Ultimate-Guitar.com Take our survey!
×
Author
Difficulty
intermediate
Tabbed by Jamie Harris
Standard Tuning

Intro + verse
-----1-----------------1------------2h4p2-|
-0-2---2-----------0-2---2-0--0-0-0-------|
----------0-0-0-2-------------------------| x 2 for intro
------------------------------------------| x 4 for verses

Chorus
----------------------0h2-2-2-000-0h2-2-2-|
-0-0-2-2-0-0-2-2--0-2---------------------|
------------------------------------------|
------------------------------------------| x 2

Second chorus play x 3 then
---------------------0h2-2-2-000-0h2-2-2-|
-0------0--------------------------------|
-----------------------------------------|
-----------------------------------------|

Interlude
-----2-0-0-----------|
-0-----------0-------|
---4-----------4-0---|
-------------------3-| x 2

then after 2 measures of guitar
-----1--------1---------|
-0-2---2--0-2---2---0-2-|
------------------------|
------------------------| x 2

Finish on
-0h2-2-2-000-0h2-2-2-|
---------------------|
---------------------|
---------------------|
Suggest correction
Give kudos to tab author, rate the tab!
1 2 3 4 5
comments
print report bad tab
guest
You may want to rate the tab now too:
select rating
Wanna post a correction for this tab? Suggest correction