Oops, an error
Loading. Please wait.

Sick And Tired Bass Tab

version 1
version 1

Whole song

490 views 1 this week
no commentswrite comment
1 2 3 4 5
2 more votes to show rating
add to favorites
launch autoscroll
font size
0
reset
guitar tuner
Autoscroll
slow
fast
+/-
esc
set tempo
stop
Help us to improve Ultimate-Guitar.com Take our survey!
×
Band- Default
Song- Sick And Tired

Intro
G:------------------|
D:------------------|
A:------3-----------|
E:-----5--3---------|
B:-3-3---6--1-3-----|

Verse
G:-----------------------------------------|
D:-----------------------------------------|
A:-----------------5-3-------3-------------|
E:----3-5----3-5----------5----3-----------|
B:3-6---3-6----------3-3-----6--1-3--------|

Chorus
G:--------------------------------------------------------------------|
D:--------------------------------------------------------------------|
A:----------------------------8-7-5--8-7--8-7-10--13-15-15------------|
E:-----------------------------------------6--------------------------|
B:-3-3---3-3---3-3---3-3----------------------------------------------|

Pre.ultimate chorus
G:--------------------------|
D:--------------------------|
A:-3-5-3--------------------|
E:--------3-----------------|
B:----------6-3-6-3-6-3-----|

G:------------------|
D:------------------|
A:------------------|
E:-5-6-8-6-3-6------|
B:------------------|
Suggest correction
Give kudos to tab author, rate the tab!
1 2 3 4 5
comments
print report bad tab
guest
You may want to rate the tab now too:
select rating
Wanna post a correction for this tab? Suggest correction