Oops, an error
Loading. Please wait.

Sick And Tired Bass Tab

version 2
version 2

Whole song

1,026 views 1 this week
2 commentsread comments
1 2 3 4 5
please rate
add to favorites
launch autoscroll
font size
0
reset
guitar tuner
Autoscroll
slow
fast
+/-
esc
set tempo
stop
Help us to improve Ultimate-Guitar.com Take our survey!
×
Author
Difficulty
Tuning
intermediate
D A D G B E
Intro
|-----------2/5----0-----------------|
|-----------------3------0-----------|
|-----------------------3------------|
|-0---0----------------------0---0---|  x 4 miss out the bottom D's the
                                            last time        

Verse
|--------0--2~--------0--2---7--5----------2/5-----0------------------|
|---0--3--------0--3-----------------------------3-----0--------------|
|----------------------------------------------------3----------------|
|-------------------------------------0---0---------------------------|

Pre-Chorus
|-------------------------------------|
|-------------------------------------|
|-------------------------------------|
|-0--0------0--0------0--0------0--0--|

Chorus
|-----------------------0------------------------------0--------------|
|-3---0---3-------3-------------3-----3--0---3------3-----------------|
|------------1------------1---1----------------1----------------0---0-|
|---------------------------------------------------------------------|

Interlude
|-----------------------------|
|----0-------00-----00--------|
|-3----3--------3------3------| x 3
|----------5------------------|

|-----------------------|
|-0--------3--2-----0---|
|----3--3--------3------|
|-----------------------|

Suggest correction
Give kudos to tab author, rate the tab!
1 2 3 4 5
comments
print report bad tab
2 comments total.
0 reply
Teen Spirit 656 wrote on April 7 2008, 10:35 am

:D well done Claymore
(I know I'm all over the place, don't ask me why I'm just like that ;) )
great tab. You like Default? They're awesome.

0 reply
Claymore65 709 wrote on April 9 2008, 09:26 am

Yeh im gettin the album The Fallout :) they seem pretty good, they sound like Nickelback and im reely into Nickelback

guest
You may want to rate the tab now too:
select rating
Wanna post a correction for this tab? Suggest correction