Oops, an error
Loading. Please wait.

Slow Me Down Bass Tab

185 views 1 this week
no commentswrite comment
1 2 3 4 5
3 more votes to show rating
add to favorites
launch autoscroll
font size
0
reset
guitar tuner
Autoscroll
slow
fast
+/-
esc
set tempo
stop
Help us to improve Ultimate-Guitar.com Take our survey!
×
Author
Difficulty
intermediate
Tabbed by Jamie Harris
Standard Tuning

Intro + Verse
-5h7-----------------------|
----0-0--0-0-0--0-0-0--0-0-|
---------------------------|
---------------------------|

Pre-Chorus
-------------------------|
-------------------------|
-3-3-3-3-3-3-3-3-3-3-3-3-|
-------------------------| x 1

-5h7-----------------------|
----0-0--0-0-0--0-0-0--0-0-|
---------------------------|
---------------------------| x 2

Chorus
-0-------0-7-------7-7-|
---4-0-4-----0-0-0-----|
-----------------------|
-----------------------| x 4

-4-4-4-4-4-4-4-4-5-5-5-5-5-5-5-5-|
---------------------------------|
---------------------------------|
---------------------------------|

2nd Chorus x 2


Interlude
-0-------0-7-------7-7-|
---4-0-4-----0-0-0-----|
-----------------------|
-----------------------| x 4

then
-0-------0-7---|
---4-0-4-----0-|
---------------|
---------------| x 4

2 measures of guitar then join in with
------------|
-3--3-3-5-5-|
------------|
------------| x 1 then after another 2 measures x 2

The rest is easy.
Plz rate :)
Suggest correction
Give kudos to tab author, rate the tab!
1 2 3 4 5
comments
print report bad tab
guest
You may want to rate the tab now too:
select rating
Wanna post a correction for this tab? Suggest correction