Oops, an error
Loading. Please wait.

The Fallout Bass Tab

242 views 1 this week
no commentswrite comment
1 2 3 4 5
3 more votes to show rating
add to favorites
launch autoscroll
font size
0
reset
guitar tuner
Autoscroll
slow
fast
+/-
esc
set tempo
stop
Help us to improve Ultimate-Guitar.com Take our survey!
×
Author
Difficulty
intermediate
Tabbed by Jamie Harris

[1. Sick and Tired]
Tuning Drop D

Intro
-----------2/5----0-----------------|
----------------3-------0-----------|
----------------------3-------------|
-0---0----------------------0---0---| x 4 miss out the bottom D's the last time

Verse
--------0--2~--------0--2---7--5----------2/5-----0------------|
-0--3----------0--3-----------------------------3---------0----|
--------------------------------------------------------3------|
----------------------------------0---0------------------------|

Pre-Chorus
------------------------------------|
------------------------------------|
------------------------------------|
-0--0------0--0------0--0------0--0-|

Chorus
--------------------0--------------------------------0-----------|
-3---0---3------3-------------3-----3--0---3------3--------------|
------------1----------1---1------------------1------------0---0-|
-----------------------------------------------------------------|

Interlude
-------------------------|
----0-------00------00---|
-3----3--------3-------3-| x 3
--------5----------------|

---------------------|
-0--------3--2-----0-|
----3--3--------3----|
---------------------|

[2. Deny]
Tuning Drop D

No bass for intro
Come in with
-----
--3~-
-----
-----

Then
------------------------------------|
-5--3--0-----------5--3--0----------|
----------3-----------------3p0-----|
-------------3--0---------------3-0-|

Verse
-------------------|
-------------3-2---|
-----------------3-|
-0-0----0-0--------| x 4

Chorus
------------------|
-5--3--0----------|
----------3-------|
-------------3--0-| x 4

Interlude
------------------|
------------------|
------------------|
-0----9----3----5-| x 4

Then chorus and finish with verse part.

[3. Wasting My Time]
Tuning Standard

Verse
-------------------------------11-12----------------|
-------------------------0--0--------12-------------|
-5--5--------5--5------------------------5--5-------|
-------3--3--------3--3------------------------3--3-| x 2

Chorus
-0--0--0--0----0--0--0--0----4--4--4--4----4--4--4--4-|
------------------------------------------------------|
------------------------------------------------------|
------------------------------------------------------|

-0--0--0--0----0--0--0--0---2--2--2--2--2--2--2--2-|
---------------------------------------------------|
---------------------------------------------------|
---------------------------------------------------|

2nd chorus play first part twice then go straight to the A's

Solo
---------------------2--------------------------------2------------2-|
-0-0-2-2-4--0--0-0-4---0--0-----0-------------0-0-2-2---0--0-0-2-2---|
-------------------------4-4--4---2--4--2--0-------------------------|
---------------------------------------------------------------------|

----------------------|
--0-----0-------------|
-4-4--4-------4--2--0-|
----------3-----------|

Then the last part of the verse, then repeat the chorus a few times

[4. Slow Me Down]
Tuning Standard

Intro + Verse
-5h7------------------------|
----0-0--0-0-0--0-0-0--0-0--|
----------------------------|
----------------------------| repeat till pre-chorus

Pre-Chorus
-------------------------|
-------------------------|
-3-3-3-3-3-3-3-3-3-3-3-3-|
-------------------------| x 1

-5h7-----------------------|
----0-0--0-0-0--0-0-0--0-0-|
---------------------------|
---------------------------| x 2

Chorus
-0-------0-7-------7-7-|
---4-0-4-----0-0-0-----|
-----------------------|
-----------------------| x 4

-4-4-4-4-4-4-4-4-5-5-5-5-5-5-5-5-|
---------------------------------|
---------------------------------|
---------------------------------|

2nd Chorus x 2


Interlude
-0-------0-7-------7-7-|
---4-0-4-----0-0-0-----|
-----------------------|
-----------------------| x 4

then
-0-------0-7---|
---4-0-4-----0-|
---------------|
---------------| x 4

2 measures of guitar then join in with
------------|
-3--3-3-5-5-|
------------|
------------| x 1 then after another 2 measures x 2

[5. One Late Night]
Tuning Standard

Verse
------------------------------|
-0----------------0-----------|
----0--3------0-2----0--3-----|
----------3--3-------------3--| x 2 once singing starts

Chorus
--------------|
-0-0----------|
-----0--2-2---|
------------3-| x 4

For the solo just play the chorus again

[6. Seize The Day]
Tuning Standard

Intro + verse
-----1-----------------1------------2h4p2-|
-0-2---2-----------0-2---2-0--0-0-0-------|
----------0-0-0-2-------------------------| x 2 for intro
------------------------------------------| x 4 for verses

Chorus
----------------------0h2-2-2-000-0h2-2-2-|
-0-0-2-2-0-0-2-2--0-2---------------------|
------------------------------------------|
------------------------------------------| x 2

Second chorus play x 3 then
---------------------0h2-2-2-000-0h2-2-2-|
-0------0--------------------------------|
-----------------------------------------|
-----------------------------------------|

Interlude
-----2-0-0-----------|
-0-----------0-------|
---4-----------4-0---|
-------------------3-| x 2

then after 2 measures of guitar
-----1--------1---------|
-0-2---2--0-2---2---0-2-|
------------------------|
------------------------| x 2

Finish on
-0h2-2-2-000-0h2-2-2-|
---------------------|
---------------------|
---------------------|

[7. Somewhere]
Tuning Standard

Intro + Verse
-------------------------|
-------------------------|
-------------------------|
-2-2-2-2-2-0-2-2-2-2-2-0-| just repeat till chorus

Pre Chorus
-----------------------------------|
-----------------------------------|
-0---2-----------------------------|
---------0h2-2-2-2-2-(0-2-2-2-2-2)-| x 2
Miss out bracketed notes second time

Chorus
-----------------------|
-0-------------0-------|
----0--2----------2----|
----------2----------2-| x 2

Interlude
---------------------|
---------------------|
---------------------|
-2h5-2p0-2-2h5-2p0-2-| x 8
^^^^^^^^^^^^^^^^^^^^^^^
You can play this with open A strings
but this gives a better effect.

then Chorus x 2
     then interlude notes x 6

[8. Live a Lie]
Tuning Drop D

Second half of intro
------------------------------|
------------------------------|
------------------------------|
-0--0--0-0-0-0--3--3--3-3-3-3-|

Verse
--------------------------------------------------------------------|
--------------------------------------------------------------------|
--------------------------------------------------------------------|
-0--0--0-0-0-0--0-3--3--3-3-3-3--3-0--0--0-0-0-0--0-3--3--3-3/5-5-5-| x 2

Chorus
-------------------------------|
-------------------------------|
-------------------------------|
-5-5-5-5-5-5-5-5-3-3-3-2---2-2-| x 2

--------------------|
--------------------|
-------0------------|
-5--5-------3--3--3-| x 2

Interlude
Just before the guitar starts play
-----7-5---5---------|
-5/7-----7---7-5h7p5-|
---------------------|
---------------------|

then
-----------------------------------------------------------------|
-----------------------------------------------------------------|
-1-1-1-1-1-1-1-1-0-0-0-0-0-0-0-0-3-3-3-3-3-3-3-3-0-0-0-0-0-0-0-0-|
-----------------------------------------------------------------| x 2

play another 2 times under the solo
then piano outro

[9. By Your Side]
Tuning Standard

No Bass at first
Intro + Verse
------------------------------------|
---6-7-9----6-7-9-------------------|
-7--------7----------4-5-7----4-5-7-|
-------------------5--------5-------|

Chorus
---------------------------------|
---------------------------------|
-7-7-7-7-7-7-7-7-5-5-5-5-4-4-4-4-|
---------------------------------|

For solo just play the chorus part

[10. Faded]
Tuning Standard

Join in with
-----------|
-----------|
-----------|
-3--3-3-5--|

Intro + Verse
------------------------------------------------|
-0--0-0--4-5-4------5v---------4-2-0------------|
-------------------------2--2-------------------|
---------------3--3------------------3--3-3-5---| x 2 for intro
					         x 4 for verse

Chorus is the same as verses - play x 2 first time
                               play x 4 second time

Interlude - Play Verse part x 2 then
-2--2--------0--0--2--2-|
-------0--0-------------|
------------------------|
------------------------|

Finish with chorus

[11. Let You Down]
Tuning Standard

Intro + verse
---------------|
------0--------|
-4--4---2--0-0-|
---------------| x2 for intro
                x4 for verses

Chorus
----------------------------------------|
----------------------------------------|
---------------------5--5-5-5--5--5-5-5-|
-3--3-3-3--3--3-3-3---------------------| x 2

Interlude
---------------------------------|
---------------------------------|
-2-2-2-2-2-2-2-2-0-0-0-0-0-0-0-0-|
---------------------------------| x 2

----------------------|
-------------------0~-|
-0--------------------|
---33-3--3--00-0------|

Play chorus x 4

Outro
--------------|
--------------|
-2--0---------|
------33---0~-|

And thats it! Enjoy and rate if you like.
Suggest correction
Give kudos to tab author, rate the tab!
1 2 3 4 5
comments
print report bad tab
guest
You may want to rate the tab now too:
select rating
Wanna post a correction for this tab? Suggest correction