Oops, an error
Loading. Please wait.

Brothers ukulele

350 views 1 this week
no commentswrite comment
1 2 3 4 5
3 more votes to show rating
add to favorites
×
Save as Personal and add changes to this tab that will be seen only by you. Learn more ›
×
You can save this tab as Personal to edit and correct it or add notes. All changes will be seen only by you. Learn more »
launch autoscroll
font size
0
reset
transpose
0
reset
display chords
guitar tuner
edit
Autoscroll
slow
fast
+/-
esc
set tempo
stop
Strumming
There is no strumming pattern for this song yet. and get +5 IQ
So no one submitted this tab, so I figured it out. I play it full step
down so the tuning is:

D-----------------|
A-----------------|
F-----------------|
C-----------------|
G-----------------|
D-----------------|

Intro: Am, Am, F

You play the Am's and F's in the intro like this (and the Am's on the verses lke this too)

    Am                                                Am           F   
  
D---0--0--0--0---1--1--1--0--0--0--0------------0---0--------------0------|
A---1--1--1--1---0--0--0--1--1--1--1------------1---1--------------1------|
F---2--2--2--2---2--2--2--2--2--2--2------------2---2--restart..---2--ect.|
C---2--2--2--2---2--2--2--2--2--2--2------------2---2--------------3------|
G-0-0--0--0--0---0--0--0--0--0--0--0-0-...------0-0-0---------------------|
D---------------------------------------------3------------------3--------|


Am (Whole verse)
You need to get out of this house
I’ll walk you down to town
We’ll go act our age
Kick rocks, waste summer days
Penny candy at the general store
I’d buy us a pop if I had more
Keep walking inland all day
Spitting and cursing each other’s name
F                                                            Am
“Ain’t this what… ain’t this what brothers are supposed to do?”
F                                         Am
The blood between us, makes it all but true

Am (whole verse)
So we roll on through
Out past the quarries, sandpits too
Swim out among the rocks and cliffs
Ignorant youth keeps us from death
Find our way out to the tracks
The sun, it beats down on our backs
Well, heaven help us if there’s a train
Dodge it like the beaches of Normandybut
F                                                            Am
“Ain’t this what… ain’t this what brothers are supposed to do?”
F                                         Am
The blood between us, makes it all but true

The chords switch up here to C,G,Am,F The violin sounds good here so I added the violin 
below and you can play it with the strum pattern, I used an example after with the C chord

 Violin below           Guitar + violin below
D---0-3-0----------------------0-3-0---------------------------------------|
A-3-------3-1..repeat----1-1-3-1-1-1-3-1-------------------------------1---|
F------------------------0-0-0-0-0-0-0-0-x2--repeat-with-other-chords--0---|
C------------------------2-2-2-2-2-2-2-2-------------------------------0---|
G------------------------3-3-3-3-3-3-3-3-------------------(use-this---2---|
D-----------------------------------------------------------for-the-G)-3---|



C                                 G
And we saw that smoke rising over trees
       Am                                            F
And I swore, I swore, I swore that train was out for me
C                                                     G
So I held him tight and felt those tracks rumble underneath
Am                                                              F
He swore, he swore if I didn’t let go he would knock me off my feet
                     C
And that’s what he did
                     G
And that's what he did
                    Am
And that's what he did
                     F
And that's what he did

Then it ends with Am's again. please rate

            
            
Suggest correction
Creating personal tab
Creating personal tab
You can edit any tab online and save it as your Personal.

You can edit, replace or remove any tab part or add personal notes – all changes will be seen only by you.

Personal tabs can be accessed anytime from any device, even offline.
Learn more »
Give kudos to tab author, rate the tab!
1 2 3 4 5
comments
print report bad tab
guest
Wanna post a correction for this tab? Suggest correction