Oops, an error
Loading. Please wait.

Nowhere Tab

193 views 1 this week
no commentswrite comment
1 2 3 4 5
please rate
add to favorites
launch autoscroll
font size
0
reset
how to read this tab
guitar tuner
Tab Pro tools
  • play this tab
  • loop segment
  • change instrument
  • show fretboard
  • metronome
Autoscroll
slow
fast
+/-
esc
set tempo
stop
Contributor
Difficulty
novice
Tabbed by Kerry Hall
www.kgbsuspect.com

Part 1:
e-----------------------------------------------------------------|
B-----------------------------------------------------------------|
G----------7--------------7--------------7----9-10-10-10-12-12-12-|
D--5-7-5-7-7-7--7-5-7-5-7-7-7--7-5-7-5-7-7-7--9-10-10-10-12-12-12-|
A--5-7-5-7-5-7--7-5-7-5-7-5-7--7-5-7-5-7-5-7--7--8--8--8-10-10-10-|
E--5-5-5-5---5--5-5-5-5-5---5--5-5-5-5-5---5----------------------|


Part 1 Variation:
e-----------------------------------------------------------------|
B-----------------------------------------------------------------|
G---------------------------------------------9-10-10-10-12-12-12-|
D--5-7-5-7-7-7--7-5-7-5-7-7-7--7-5-7-5-7-7-7--9-10-10-10-12-12-12-|
A--5-7-5-7-7-7--7-5-7-5-7-7-7--7-5-7-5-7-7-7--7--8--8--8-10-10-10-|
E--5-5-5-5-5-5--5-5-5-5-5-5-5--5-5-5-5-5-5-5----------------------|

Listen to the song and you can hear the difference.

Part 2:
e------------------------- ---------------|
B-----------------------------------------|
G-----------------------10-10-10-12-12-12-|
D--5-7----5-7----5-7----10-10-10-12-12-12-|
A--5-7----5-7----5-7-----8--8--8-10-10-10-|
E--3-5----3-5----3-5----------------------|

I usually just slide between the G5 and A5.

Part 2 Variation:
e---------------------------------------|
B---------------------------------------|
G---------------------10-10-10-12-12-12-|
D----7-----7-----7----10-10-10-12-12-12-|
A----7-----7-----7-----8--8--8-10-10-10-|
E----5-----5-----5----------------------|

Yes this is played too. Let the first 3 chords ring. 

Part 3:
e--------------------------------------------------------------------|
B--------------------------------------------------------------------|
G--9-9-9-9-9-9-10-10-10-10-10-10-14-14-14-14-14-14-12-12-12-12-12-12-|
D--9-9-9-9-9-9-10-10-10-10-10-10-14-14-14-14-14-14-12-12-12-12-12-12-|
A--7-7-7-7-7-7--8--8--8--8--8--8-12-12-12-12-12-12-10-10-10-10-10-10-|
E--------------------------------------------------------------------|

The first three times you play it, play the G5s at the end, but the 4th time
keep playing F5.

Ending:

Play Part 3 twice, with G5 at the end each time, then play:

e----                       -----|
B----                       -----|
G--9-                       -----|
D--9- for awhile, then play -5-7-|
A--7-                       -5-7-|
E----                       -3-5-|

And here is the order:

Part 1 x 4
Part 2 x 2
Part 1 x 2 (YEAAAAH!!)
Part 2 x 1 (Singing Starts)
Part 1 variation x 1
Part 3 x 4 (At the end of this part the singing stops)
Part 1 x 2
Part 2 x 1 (Singing Starts)
Part 1 variation x 1
Part 3 x 4 (At the end of this part the singing stops)
Bass Part (No Guitar)
Part 1 variation x 2 (YEAAAHH!!!)
Part 2 variarion x 2 (More singing)
Part 3 x 4 (At the end of this part the singing stops)
Ending 
comments
We did not receive enough feedback on this tab! Please rate:
print report bad tab
1 2 3 4 5
I want to post or [tab]
guest
You may want to rate the tab now too:
select rating
Please do not post tabs as comments. Select "correction" instead!