Oops, an error
Loading. Please wait.

Chads Favorite Song Chords

version 1
version 1

Whole song

6,564 views 12 this week
2 commentsread comments
1 2 3 4 5
accurate
x 3
add to favorites
launch autoscroll
font size
0
reset
transpose
0
reset
display chords
guitar tuner
Autoscroll
slow
fast
+/-
esc
set tempo
stop
Help us to improve Ultimate-Guitar.com Take our survey!
×
----------------------------------------------------------------------------
                Chad's Favorite Song- Defiance,Ohio
----------------------------------------------------------------------------
Tabbed by: Smoochy
Email: therealsmoochy@yahoo.com

Tuning: Standard

     G     E     D     Am     C
e|---3-----0-----2------0-----0----|
B|---0-----0-----3------1-----1----|
G|---0-----X-----2------2-----0----|
D|---0-----2-----0------2-----2----|
A|---2-----2-----0------0-----3----|
E|---3-----0-----0------0-----0----|

G                  E      G                        D              G  
do you remember passion? it's burried beneath a concrete world. have you 
               E       G                            D                 Am
forgotten compassion? are you in the middle of an ugly war between yourself 
               C      Am                               C      G    
and a giant machine? are you so tired you can't even dream anymore?
                                      E    G                          
fuck this city, and fuck this filthy air. let's build a-frames in the woods 
                D       G                                          E    G
and just live there. we'll all eat berries and build fires every night and 
                                     D
forget this mistake we call modern life.
Am                              C                     Am               
i believe in something, but i don't know what it is. it's either the future 
        C    Am                       C                      G
or the end. it's every reason that i do or don't get out of bed. 
                                     E                                 G
we live in the unhappy shadows of skyscrapers freight trains and malls to a 
                                     D        G
soundtrack of nuclear warheads and bombs. addicted to power, addicted to 
    E                                      G 
authority, money, and success ... so far gone, without our addictions, do 
                      D
we even know how to live?
Am                        C                       Am           
the sun is shining thru distance, bitter clouds that make me choke and 
            C        Am                         C                   Am
cough and scream. sitting here along watching acid raindrops fall, this is 
                         C       
not the life i want to lead.

End: C.....Am......G

That's about it if you have any questions email me.
Suggest correction
What's this?
You can suggest a correction to this tab. Community and Mods will review your correction and vote to approve or reject it.
comments
We did not receive enough feedback on this tab! Please rate:
print report bad tab
1 2 3 4 5
2 comments total.
+1 reply
porta666 12 wrote on May 28 2007, 09:14 am

good tab, but i would go Em instead of E. good to see tabs by this brilliant band though, cheers!

+2 reply
friedsoup 307 wrote on October 18 2008, 05:07 pm

thanks for the tab!
i transcribed the harmonica solo to guitar, and listed the chords played over it. i put both octaves on the tab, one over the other.
where there are three notes at the end of the first measure, the bottom is the guitar.
D Am
this part is in between "live?" and "the sun"

e|----15--15h17-15h17-15-----15--15h17-15h17-20-19-17-19-|
B|-----8---8h10--8h10--8--15--8---8h10--8h10-13-12-10-12-|
G|-------------------------7------------------5--4--2--4-|
D|-------------------------------------------------------|
A|-------------------------------------------------------|
E|-------------------------------------------------------|
G D
e|----15--15h17-15h17-15-----15--15h17-15h17-20-19-17----|
B|-15--8---8h10--8h10--8--15--8---8h10--8h10-13-12-10----|
G|--7----------------------7-----------------------------|
D|-------------------------------------------------------|
A|-------------------------------------------------------|
E|-------------------------------------------------------|
G Em G D
e|----15--15h17-15h17-15-----15--15h17-15h17-20-19-17-19-|
B|-15--8---8h10--8h10--8--15--8---8h10--8h10-13-12-10-12-|
G|--7----------------------7-----------------------------|
D|-------------------------------------------------------|
A|-------------------------------------------------------|
E|-------------------------------------------------------|
G Em G D
e|----15--15h17-15h17-15-----15--15h17-15h17-20-19-17----|
B|-15--8---8h10--8h10--8--15--8---8h10--8h10-13-12-10----|
G|--7----------------------7-----------------------------|
D|-------------------------------------------------------|
A|-------------------------------------------------------|
E|-------------------------------------------------------|

guest
You may want to rate the tab now too:
select rating
Please do not post tabs as comments. Select "correction" instead!