Oops, an error
Loading. Please wait.

Hair Pool Tab

12,080 views 15 this week
2 commentsread comments
1 2 3 4 5
excellent!
x 7
add to favorites
launch autoscroll
font size
0
reset
how to read this tab
guitar tuner
Autoscroll
slow
fast
+/-
esc
set tempo
stop
Help us to improve Ultimate-Guitar.com Take our survey!
×
Author
Tabbed by: Tim Czarnecki
Email: friedsoup@gmail.com 

Hair Pool by Defiance, Ohio

great song, new song! they recorded a vid, which i tabbed from
http://www.ifyoumakeit.com/video/defiance-ohio/hair-pool/
they have an mp3 of it on there too :)

1. the words should be a general guide to what measure you're on; the notes are
   _not_ aligned with the words. the strum patterns are easy to pick up from the vid
2. the lyrics aren't up anywhere, so i had to write them out myself. this means
   there are mistakes. let me know if you have any corrections through email,
   i'll change them

have fun!

Tuning: standard

intro
e||---------------------------------------|
B||o----------------------7---7-7h9p7---7-|
G||---4-------4h6-4h6-6/8---8---------8---|
D||---4---4h6-----------------------------|
A||o--2-----------------------------------|
E||---------------------------------------|

e|-6-----------6---4-----------4-|-3-------3-------3-------3-------||
B|-7-----------7---5-----------5-|-5---------5-------5-------5----o||
G|-8-----------8---6-----------6-|-4-----4-----4-------4-------4---||
D|-------------------------------|---------------------------------||
A|-------------------------------|--------------------------------o||
E|-------------------------------|---------------------------------||

e|-------------------0-------0---0-|-----------------0-------0---0-|
B|-------------------0-------0---0-|-------------7---0-------0---0-|
G|---4-------4h6--4/-1-------1---1-|-4----4--6/8---8-1-------1---1-|
D|---4---4h6---------2-------2---2-|-4-4h6-----------2-------2---2-|
A|---2---------------2-----2-2---2-|-2---------------2-----2-2---2-|
E|-------------------0-----0-0---0-|-----------------0-----0-0---0-|

e|-------------------0-------0---0-|-7-------7-----7-7-------7-----|
B|-------------------0-------0---0-|-8-------8-----8-8-------8-----|
G|---4-----4-6b7--4--1-------1---1-|-9-------9-----9-9-------9-----|
D|---4-4h6-----------2-------2---2-|-9-------9-----9-9-------9-----|
A|---2---------------2-----2-2---2-|-7-------7-----7-7-------7-----|
E|-------------------0-----0-0---0-|-------------------------------|
                                                       i'll tell you in
verse
e|---------------------------------------------------------------|
B|---------------------------------------------------------------|
G|-4---4-4-4-4-4-4-4-4-4-4-4-4-4-xx1-1-1-1-1-1-1-1-1-1-1-1-1-1-1-|
D|-4---4-4-4-4-4-4-4-4-4-4-4-4-4-xx2-2-2-2-2-2-2-2-2-2-2-2-2-2-2-|
A|-2---2-2-2-2-2-2-2-2-2-2-2-2-2-xx2-2-2-2-2-2-2-2-2-2-2-2-2-2-2-|
E|---------------------------------0-0-0-0-0-0-0-0-0-0-0-0-0-0-0-|
       * * * * * * * * * * * * * *** * * * * * * * * * * * * * *  
street intersections/because they give you a place to go/give meanings to

e|---------------------------------------------------------------|
B|---------------------------------------------------------------|
G|-4-4-4-4-4-4-4-4-4-4-4-4-4-4-4-4-1-1-1-1-1-1-1-1-1-1-1-1-1-1-1-|
D|-4-4-4-4-4-4-4-4-4-4-4-4-4-4-4-4-2-2-2-2-2-2-2-2-2-2-2-2-2-2-2-|
A|-2-2-2-2-2-2-2-2-2-2-2-2-2-2-2-2-2-2-2-2-2-2-2-2-2-2-2-2-2-2-2-|
E|---------------------------------0-0-0-0-0-0-0-0-0-0-0-0-0-0-0-|
   * * * * * * * * * * * * * * * * * * * * * * * * * * * * * * * 
lines on maps/and tell you how you're gunna get home/now i'm back here in the

e|---------------------------------------------------------------|
B|---------------------------------------------------------------|
G|-4-4-4-4-4-4-4-4-4-4-4-4-4-4-4-4-1-1-1-1-1-1-1-1-1-1-1-1-1-1-1-|
D|-4-4-4-4-4-4-4-4-4-4-4-4-4-4-4-4-2-2-2-2-2-2-2-2-2-2-2-2-2-2-2-|
A|-2-2-2-2-2-2-2-2-2-2-2-2-2-2-2-2-2-2-2-2-2-2-2-2-2-2-2-2-2-2-2-|
E|---------------------------------0-0-0-0-0-0-0-0-0-0-0-0-0-0-0-|
   * *   * * * *   * * * * * * * * * * * * * * * * * * * * * * * 
mid-west/where everything's familiar and sincere/everything's 

e|---------------------------------------------------------------|
B|---------------------------------------------------------------|
G|-4-4-4-4-4-4-4-4-4-4-4-4-4-4-4-4-1-1-1-1-1-1-1-1-1-1-1-1-1-1-1-|
D|-4-4-4-4-4-4-4-4-4-4-4-4-4-4-4-4-2-2-2-2-2-2-2-2-2-2-2-2-2-2-2-|
A|-2-2-2-2-2-2-2-2-2-2-2-2-2-2-2-2-2-2-2-2-2-2-2-2-2-2-2-2-2-2-2-|
E|---------------------------------0-0-0-0-0-0-0-0-0-0-0-0-0-0-0-|
   * * * * * * * * * * * * * * * * * * * * * * * * * * * * * * * 
external/and nothing just happens to you here/in between coasts

e|---------------------------------------------------------------|
B|---------------------------------------------------------------|
G|-4-4-4-4-4-4-4-4-4-4-4-4-4-4-4-4x1-1-1-1-1-1-1-1-1-1-1-1-1-1-1-|
D|-4-4-4-4-4-4-4-4-4-4-4-4-4-4-4-4x2-2-2-2-2-2-2-2-2-2-2-2-2-2-2-|
A|-2-2-2-2-2-2-2-2-2-2-2-2-2-2-2-2x2-2-2-2-2-2-2-2-2-2-2-2-2-2-2-|
E|---------------------------------0-0-0-0-0-0-0-0-0-0-0-0-0-0-0-|
   * *   *   * *   * *   *         * *   *   * *   * *   *       

e|-------------------------------------0-----0---0-----0---0-0-0-|
B|-------------------------------------0-----0---0-----0---0-0-0-|
G|-4-4-4-4-4-4-4-4-4-4-4-4-4-4-4-4-----1-----1---1-----1---1-1-1-|
D|-4-4-4-4-4-4-4-4-4-4-4-4-4-4-4-4-2---2-----2---2-----2---2-2-2-|
A|-2-2-2-2-2-2-2-2-2-2-2-2-2-2-2-2-2---2-----2---2-----2---2-2-2-|
E|---------------------------------0---0-----0---0-----0---0-0-0-|
   * *   *   * *   * * * * * * * * 

chorus
e|-----------------0---0------0-0---------------------------------|
B|-----------------0---0------0-0---------------------------------|
G|-----------------1---1------1-1--4---4------4-4--4---4--4-4-4-4-|
D|-4---4------4-4--2---2------2-2--4---4------4-4--4---4--4-4-4-4-|
A|-4---4------4-4--2---2------2-2--2---2------2-2--2---2--2-2-2-2-|
E|-2---2------2-2--0---0------0-0---------------------------------|
lookin for what it was you lost on second street

e|-----------------0---0------0-0---------------------------------|
B|-----------------0---0------0-0---------------------------------|
G|-----------------1---1------1-1--4---4------4-4--4---4--4-4-4-4-|
D|-4---4------4-4--2---2------2-2--4---4------4-4--4---4--4-4-4-4-|
A|-4---4------4-4--2---2------2-2--2---2------2-2--2---2--2-2-2-2-|
E|-2---2------2-2--0---0------0-0---------------------------------|
forgot what it was on washington

e|-----------------0---0------0-0---------------------------------|
B|-----------------0---0------0-0---------------------------------|
G|-----------------1---1------1-1--4---4------4-4--4---4--4-4-4-4-|
D|-4---4------4-4--2---2------2-2--4---4------4-4--4---4--4-4-4-4-|
A|-4---4------4-4--2---2------2-2--2---2------2-2--2---2--2-2-2-2-|
E|-2---2------2-2--0---0------0-0---------------------------------|
and you let it go, you let it go, you let it go, and you jumped in that pool undone

e|-----------------0---0------0-0--0---0------0-0--0---0--0-0-0-0-|
B|-----------------0---0------0-0--0---0------0-0--0---0--0-0-0-0-|
G|-----------------1---1------1-1--1---1------1-1--1---1--1-1-1-1-|
D|-4---4------4-4--2---2------2-2--2---2------2-2--2---2--2-2-2-2-|
A|-4---4------4-4--2---2------2-2--2---2------2-2--2---2--2-2-2-2-|
E|-2---2------2-2--0---0------0-0--0---0------0-0--0---0--0-0-0-0-|
we're still in town, isn't that fun, yeah isn't that fun?

e|-----------------0-----0----0-0------------------0-----0----0-0-|
B|-----------------0-----0----0-0------------------0-----0----0-0-|
G|-----------------1-----1----1-1------------------1-----1----1-1-|
D|-4---4-4----4-4xx2-----2----2-2xx4---4-4----4-4xx2-----2----2-2-|
A|-4---4-4----4-4xx2-----2----2-2xx4---4-4----4-4xx2-----2----2-2-|
E|-2---2-2----2-2xx0-----0----0-0xx2---2-2----2-2xx0-----0----0-0-|

e|-----------------0-----0----0-0------------------0-----0----0-0-|
B|-----------------0-----0----0-0------------------0-----0----0-0-|
G|-----------------1-----1----1-1------------------1-----1----1-1-|
D|-4---4-4-4-4-4-xx2---2-2----2-2xx4---4-4-4-4-4-xx2---2-2----2-2-|
A|-4---4-4-4-4-4-xx2---2------2-2xx4---4-4-4-4-4-xx2---2------2-2-|
E|-2---2-2-2-2-2-xx0---0------0-0xx2---2-2-2-2-2-xx0---0------0-0-|
                                                now i know there's been some

verse
e|---------------------------------------------------------------|
B|---------------------------------------------------------------|
G|-4-4-4-4-4-4-4-4-4-4-4-4-4-4-4-4-1-1-1-1-1-1-1-1-1-1-1-1-1-1-1-|
D|-4-4-4-4-4-4-4-4-4-4-4-4-4-4-4-4-2-2-2-2-2-2-2-2-2-2-2-2-2-2-2-|
A|-2-2-2-2-2-2-2-2-2-2-2-2-2-2-2-2-2-2-2-2-2-2-2-2-2-2-2-2-2-2-2-|
E|---------------------------------0-0-0-0-0-0-0-0-0-0-0-0-0-0-0-|
   * * * * * * * * * * * * * * * * * * * * * * * * * * * * * * *  
had times/and i don't mean you and me/you're over

e|---------------------------------------------------------------|
B|---------------------------------------------------------------|
G|-4-4-4-4-4-4-4-4-4-4-4-4-4-4-4-4-1-1-1-1-1-1-1-1-1-1-1-1-1-1-1-|
D|-4-4-4-4-4-4-4-4-4-4-4-4-4-4-4-4-2-2-2-2-2-2-2-2-2-2-2-2-2-2-2-|
A|-2-2-2-2-2-2-2-2-2-2-2-2-2-2-2-2-2-2-2-2-2-2-2-2-2-2-2-2-2-2-2-|
E|---------------------------------0-0-0-0-0-0-0-0-0-0-0-0-0-0-0-|
   * * * * * * * * * * * * * * * * * * * * * * * * * * * * * * * 
believing back to forgetin'/and you're turning on tv/what you

e|---------------------------------------------------------------|
B|---------------------------------------------------------------|
G|-4-4-4-4-4-4-4-4-4-4-4-4-4-4-4-4-1-1-1-1-1-1-1-1-1-1-1-1-1-1-1-|
D|-4-4-4-4-4-4-4-4-4-4-4-4-4-4-4-4-2-2-2-2-2-2-2-2-2-2-2-2-2-2-2-|
A|-2-2-2-2-2-2-2-2-2-2-2-2-2-2-2-2-2-2-2-2-2-2-2-2-2-2-2-2-2-2-2-|
E|---------------------------------0-0-0-0-0-0-0-0-0-0-0-0-0-0-0-|
   * * * * * * * * * * * * * * * * * *   * * * * * * * * * * * * 
see just makes you know/and the headlines all become a blur/ and the

e|---------------------------------------------------------------|
B|---------------------------------------------------------------|
G|-4-4-4-4-4-4-4-4-4-4-4-4-4-4-4-4-1-1-1-1-1-1-1-1-1-1-1-1-1-1-1-|
D|-4-4-4-4-4-4-4-4-4-4-4-4-4-4-4-4-2-2-2-2-2-2-2-2-2-2-2-2-2-2-2-|
A|-2-2-2-2-2-2-2-2-2-2-2-2-2-2-2-2-2-2-2-2-2-2-2-2-2-2-2-2-2-2-2-|
E|---------------------------------0-0-0-0-0-0-0-0-0-0-0-0-0-0-0-|
   * * * * * * * * * * * * * * * * * * * * * * * * * * * * * * * 
years and the lives scroll by/the bottom of that screen like desert sand/and we're

e|---------------------------------------------------------------|
B|---------------------------------------------------------------|
G|-4-4-4-4-4-4-4-4-4-4-4-4-4-4-4-4-1-1-1-1-1-1-1-1-1-1-1-1-1-1-1-|
D|-4-4-4-4-4-4-4-4-4-4-4-4-4-4-4-4-2-2-2-2-2-2-2-2-2-2-2-2-2-2-2-|
A|-2-2-2-2-2-2-2-2-2-2-2-2-2-2-2-2-2-2-2-2-2-2-2-2-2-2-2-2-2-2-2-|
E|---------------------------------0-0-0-0-0-0-0-0-0-0-0-0-0-0-0-|
   * * * * * * * * * * * * * * * * * * * * * * * * * * * * * * * 
entrenched in a mess/embedded in our beds, sleepin' in

e|-------------------------------------0-----0---0-----0---0-0-0-|
B|-------------------------------------0-----0---0-----0---0-0-0-|
G|-4-4-4-4-4-4-4-4-4-4-4-4-4-4-4-4-----1-----1---1-----1---1-1-1-|
D|-4-4-4-4-4-4-4-4-4-4-4-4-4-4-4-4-2---2-----2---2-----2---2-2-2-|
A|-2-2-2-2-2-2-2-2-2-2-2-2-2-2-2-2-2---2-----2---2-----2---2-2-2-|
E|---------------------------------0---0-----0---0-----0---0-0-0-|
   * * * * * * * * * * * * * * * * 
what i wouldn't give/to wanna live like i was ten

chorus
e|-----------------0---0-0--0-0-0---------------------------------|
B|-----------------0---0-0--0-0-0---------------------------------|
G|-----------------1---1-1--1-1-1--4---4-4----4-4--4---4--4-4-4-4-|
D|-4---4-4--4-4-4--2---2-2--2-2-2--4---4-4----4-4--4---4--4-4-4-4-|
A|-4---4-4--4-4-4--2---2-2--2-2-2--2---2-2----2-2--2---2--2-2-2-2-|
E|-2---2-2--2-2-2--0---0-0--0-0-0---------------------------------|
lookin for what it was you lost on second street/starin through the windows of my

e|-----------------0---0-0--0-0-0---------------------------------|
B|-----------------0---0-0--0-0-0---------------------------------|
G|-----------------1---1-1--1-1-1--4---4-4----4-4--4---4--4-4-4-4-|
D|-4---4-4--4-4-4--2---2-2--2-2-2--4---4-4----4-4--4---4--4-4-4-4-|
A|-4---4-4--4-4-4--2---2-2--2-2-2--2---2-2----2-2--2---2--2-2-2-2-|
E|-2---2-2--2-2-2--0---0-0--0-0-0---------------------------------|
friends/i can see all their l???-???d beds/imagining all the 

e|-----------------0---0-0--0-0-0---------------------------------|
B|-----------------0---0-0--0-0-0---------------------------------|
G|-----------------1---1-1--1-1-1--4---4-4----4-4--4---4--4-4-4-4-|
D|-4---4-4--4-4-4--2---2-2--2-2-2--4---4-4----4-4--4---4--4-4-4-4-|
A|-4---4-4--4-4-4--2---2-2--2-2-2--2---2-2----2-2--2---2--2-2-2-2-|
E|-2---2-2--2-2-2--0---0-0--0-0-0---------------------------------|
?soft dreams? and ?skin clouds? above their heads

e|-----------------0---0-0--0-0-0---------------------------------|
B|-----------------0---0-0--0-0-0---------------------------------|
G|-----------------1---1-1--1-1-1--4---4-4----4-4--4---4--4-4-4-4-|
D|-4---4-4--4-4-4--2---2-2--2-2-2--4---4-4----4-4--4---4--4-4-4-4-|
A|-4---4-4--4-4-4--2---2-2--2-2-2--2---2-2----2-2--2---2--2-2-2-2-|
E|-2---2-2--2-2-2--0---0-0--0-0-0---------------------------------|
and we're waitin for the hesitation to end/this

e|-----------------0----------------------------------------------|
B|-----------------0----------------------------------------------|
G|-----------------1---------------4------------------------------|
D|-4---------------2---------------4------------------------------|
A|-4---------------2---------------2------------------------------|
E|-2---------------0----------------------------------------------|
town is way to small/to ever need the bus

e|-------------------0--0-0-0--0-0-0--0-0-0--0-0-0--0-0-0-0-0-|
B|-------------------0--0-0-0--0-0-0--0-0-0--0-0-0--0-0-0-0-0-|
G|-------------------1--1-1-1--1-1-1--1-1-1--1-1-1--1-1-1-1-1-|
D|-4---------------2-2--2-2-2--2-2-2--2-2-2--2-2-2--2-2-2-2-2-|
A|-4---------------2----2-2-2--2-2-2--2-2-2--2-2-2--2-2-2-2-2-|
E|-2---------------0----0-0-0--0-0-0--0-0-0--0-0-0--0-0-0-0-0-|
so meet me at the pool/that they keep unlocked all night/for us

e|-------------------------------|
B|-------------------------------|
G|-4-4-----------4-4------4-4--4-|
D|-4-4-----------4-4------4-4--4-|
A|-2-2-----------2-2------2-2--2-|
E|-------------------------------|

solo!
e|---------------------------------------------------------------0--0-0--0-0-|
B|-------7-----------7-----------7---7-7h9p7--------7---9p7------0--0-0--0-0-|
G|-4-5/8---8---4-5/8---8---4-5/8---8---------8-6--8---------8----1--1-1--1-1-|
D|----------------------------------------------------9-------9--2--2-2--2-2-|
A|---------------------------------------------------------------2--2-2--2-2-|
E|---------------------------------------------------------------0--0-0--0-0-|

e|------------------------------------------------7-9-11-9-7-4-----7-----7---|
B|-------7-----------7-----------7---7-7h9p7------7-9-12-9-7-5-7h9---7h9---9-|
G|-4-5/8---8---4-5/8---8---4-5/8---8---------8-6-----------------------------|
D|---------------------------------------------------------------------------|
A|---------------------------------------------------------------------------|
E|---------------------------------------------------------------------------|

outro
e|---------------------------------------------------------------------------|
B|---------------------------------------------------------------------------|
G|-444---------6---9--------------444----------6---11---11-9-----------------|
D|-444---------6---9--------------444----------6---11---11-9-----------------|
A|-222---------4---7--------------222----------4---9----9--7-----------------|
E|---------------------------------------------------------------------------|

e|---------------------------------------------------------------------------|
B|---------------------------------------------------------------------------|
G|-444---------6---9---------------1-1-1-1-1-1-1-1-1-1-1-1-1-1-1-1-1-1-1-1-1-|
D|-444---------6---9---------------2-2-2-2-2-2-2-2-2-2-2-2-2-2-2-2-2-2-2-2-2-|
A|-222---------4---7---------------2-2-2-2-2-2-2-2-2-2-2-2-2-2-2-2-2-2-2-2-2-|
E|---------------------------------0-0-0-0-0-0-0-0-0-0-0-0-0-0-0-0-0-0-0-0-0-|

e|---------------------------------------------------------------------------|
B|---------------------------------------------------------------------------|
G|-444---------6---9--------------444----------6---11---11-9-----------------|
D|-444---------6---9--------------444----------6---11---11-9-----------------|
A|-222---------4---7--------------222----------4---9----9--7-----------------|
E|---------------------------------------------------------------------------|

e|-------------------------------------------------------------------|
B|-------------------------------------------------------------------|
G|-444---------6---9---------------1-1-1-1-1-1-1---------------------|
D|-444---------6---9---------------2-2-2-2-2-2-2-----------2---------|
A|-222---------4---7---------------2-2-2-2-2-2-2-----2-4-6---4-2---2-|
E|---------------------------------0-0-0-0-0-0-0-2-4-----------------|

| /  slide up
| \  slide down
| h  hammer-on
| p  pull-off
| ~  vibrato
| +  harmonic
| x  Mute note
| *  palm mute
===============================================================================

Suggest correction
What's this?
You can suggest a correction to this tab. Community and Mods will review your correction and vote to approve or reject it.
comments
print report bad tab
2 comments total.
0 reply
Kleekl 243 wrote on July 21 2010, 09:19 am

Cool! great tab!

0 reply
Kleekl 243 wrote on July 24 2010, 06:58 pm

some typo's:

what you see just makes you (know)=numb

to live like i was ten = to live like i once did (though i like this typo, yours is better :P)

the word with the ??? is lofted (lofted dreams/beds on skin coulds.)

guest
You may want to rate the tab now too:
select rating
Please do not post tabs as comments. Select "correction" instead!