Oops, an error
Loading. Please wait.

7 Words Tab

version 1
version 1
30,586 views 66 this week
6 commentsread comments
1 2 3 4 5
x 23
add to favorites
launch autoscroll
font size
0
reset
how to read this tab
guitar tuner
Autoscroll
slow
fast
+/-
esc
set tempo
stop
Help us to improve Ultimate-Guitar.com Take our survey!
×
I've seen some tabs of this song floating around out there that are in Drop
D tuning. However, IMHO, playing it in standard tuning sounds far better.

And, of course, listen to the CD to get the correct timings!

(b) bend slightly | ~ - let ring

[Intro / Verse:]

E ------------------------------------------------------------|---|
B ------------------------------------------------------------|-0-|
G ------------------------------------------------------------|-0-|
D -9-9-9-9-9-9-9--9-9-9-9-9-9-9--9-9-9-9-9-9-9--9-9-9-9-9-9-9-|-0-|
A -7-7-7-7-7-7-7--8-8-8-8-8-8-8--7-7-7-7-7-7-7--8-8-8-8-8-8-8-|---|
E -0-0-0-0-0-0-0--0-0-0-0-0-0-0--0-0-0-0-0-0-0--0-0-0-0-0-0-0-|---|
                                                                *
                                                  Play this right
                                                before the chorus

[Chorus]

E --------------------------------------------------------------------|
B -----------------------------------------------------------11(b)~~~-|
G --------10(b)~~~---------10(b)~~~---------10(b)~~~------------------|
D -2-2-2------------2-2-2------------2-2-2------------2-2-2-----------|
A -2-2-2------------2-2-2------------2-2-2------------2-2-2-----------|
E -0-0-0------------0-0-0------------0-0-0------------0-0-0-----------|

Towards the end of the song, this is thrown into the chorus as well...

E --------------------------------------------------------------------|
B -------------------------11(b)~~~--------------------------12(b)~~~-|
G --------10(b)~~~--------------------------10(b)~~~------------------|
D -2-2-2------------2-2-2------------2-2-2------------2-2-2-----------|
A -2-2-2------------2-2-2------------2-2-2------------2-2-2-----------|
E -0-0-0------------0-0-0------------0-0-0------------0-0-0-----------|

[Break:]

E --------------------------|
B --------------------------|
G ------3--2-2-2-2-2--3-3-3-|
D -0-2--3--2-2-2-2-2--3-3-3-|
A -0-2--1--0-0-0-0-0--1-1-1-|
E ---0----------------------|

[Outro]

E ---------------|
B ---------------|
G ------6--------|
D -4-4--6--3-3-3-|
A -4-4--4--3-3-3-|
E -2-2--4--1-1-1-|
Suggest correction
comments
print report bad tab
6 comments total. Showing first comments.
0 reply
bigwreck81 10 Jul 08, 2006 11:37 AM

nice tab, finally some one who knows what they are talking about. true you can play it in Db but it sounds so much better in standard tuning.

0 reply
macNdonsuprclb 10 May 19, 2009 07:46 PM

YEAAAAA nice work my friend

0 reply
MethLabForCutie 10 Sep 12, 2010 06:52 PM

this is perfect. no reason not to be recognized as such. i applaud you.

guest
You may want to rate the tab now too:
select rating
Wanna post a correction for this tab? Suggest correction