Oops, an error
Loading. Please wait.

7 Words Bass

version 3
version 3

Whole song

6,653 views 3 this week
no commentswrite comment
1 2 3 4 5
x 7
add to favorites
launch autoscroll
font size
0
reset
guitar tuner
×
Best way to learn
"7 Words"
Autoscroll
slow
fast
+/-
esc
set tempo
stop
deftones- 7 words by Venom bassist of forlorn!!!!

it start with guitar en then bass

Verse

G ----------------------------|
D ----------------------------|
A ----7-5----------5----------|
E -----------0-5-7----7-------|

Chorus

G ----------------------------|
D ----------------------------|
A ---------------5------------|
E --0--0-0-5-7----7-----------|

"Big ***in, Big ***in Ape!!!"

G ----------------------------|
D ----------------------------|
A ----------------------------|
E -0-0-0-0---0-0-0-0----------|

Break Point

G -------------------------------------|
D -------------------------------------|
A -------------------------------------|
E -0-00-6-6-5-55-5-6-6-6-6-------------|

At End...

G ----------------------------|
D ----------------------------|
A ----------------------------|
E -2-2--0--1-1-1--------------|


Song Structure

Verse x23
Chorus x8
Verse x16
Chorus x8
Break x12
Verse x11
Chorus x16
Suggest correction
comments
print report bad tab
guest
You may want to rate the tab now too:
select rating
Wanna post a correction for this tab? Suggest correction