Oops, an error
Loading. Please wait.

7 Words bass

version 4
version 4

Whole song

7,843 views 6 this week
no commentswrite comment
1 2 3 4 5
1 last vote to show rating
add to favorites
×
Save as Personal and add changes to this tab that will be seen only by you. Learn more ›
×
You can save this tab as Personal to edit and correct it or add notes. All changes will be seen only by you. Learn more »
launch autoscroll
font size
0
reset
guitar tuner
edit
Autoscroll
slow
fast
+/-
esc
set tempo
stop
Deftones
7 Words
Standard Tuning

I saw a lot of tabs for this song but this is the right way to play it.

Intro:
Guitar Only 4x

Bass enters after 4th time

Verse:
G|-----------------------|
D|-----------------------|
A|-5h7-5-------5---------|  Bunch of times
E|--------0-5-7--7-------|

Chorus:
G|----------------------|
D|----------------------|
A|--------------5-------|
E|-0-0--0--5--7---7-----|

End of 2nd Chorus:
G|------------------------------------|
D|------------------------------------|
A|------------------------------------|
E|-0---------------------01-1-1-1-1-1-|

Break Down:
G|---------------------------------|
D|---------------------------------| x12
A|-5h7-----------------------------|
E|-----0-0-6---6-5---5-5-5-5h6-6-6-|

Order:
Guitar Only
Verse
Chorus
Verse
Chorus
End of 2nd Chorus
Break Down
Verse
Chorus till end

            
            
Suggest correction
Creating personal tab
Creating personal tab
You can edit any tab online and save it as your Personal.

You can edit, replace or remove any tab part or add personal notes – all changes will be seen only by you.

Personal tabs can be accessed anytime from any device, even offline.
Learn more »
Give kudos to tab author, rate the tab!
1 2 3 4 5
comments
print report bad tab
guest
You may want to rate the tab now too:
select rating
Wanna post a correction for this tab? Suggest correction