Oops, an error
Loading. Please wait.

Acid Hologram tab

version 1
version 1

Whole song

1,723 views 6 this week
6 commentsread comments
1 2 3 4 5
1 last vote to show rating
add to favorites
×
Save as Personal and add changes to this tab that will be seen only by you. Learn more ›
×
You can save this tab as Personal to edit and correct it or add notes. All changes will be seen only by you. Learn more »
launch autoscroll
font size
0
reset
how to read this tab
guitar tuner
edit
Autoscroll
slow
fast
+/-
esc
set tempo
stop
TUNING: A# G C F A D (Drop C with a low A#)


[Intro/Verse]

(0:00)

D |-------------------------------|
A |-----1--------------0----------|
F |-------------------------------|
C |-------------------------------|
G |-3--------------2--------------|        x5
A#|-0-----------------------------|

D |-----------------------------------------------------------------|
A |-----------------------------------------------------------------|
F |-----------------------------------------------------------------|
C |---------5-5-5-4-4-4-4-------------------5-5-5-4-4-4-4-----------|
G |-----------------------------------------------------------------|
A#|-7-7-7-7---------------7-7-7-7-6-7-7-7-7---------------7-7-7-7-6-|

D |-------------------------------|
A |-----1--------------0----------|
F |-------------------------------|
C |-------------------------------|
G |-3--------------2--------------|        x3
A#|-0-----------------------------|

D |-----------------------------------------------------------------|
A |-----------------------------------------------------------------|
F |-----------------------------------------------------------------|
C |---------5-5-5-4-4-4-4-------------------5-5-5-4-4-4-4-----------|
G |-----------------------------------------------------------------|
A#|-7-7-7-7---------------7-7-7-7-6-7-7-7-7---------------7-7-7-7-6-|


[Chorus]

(1:01)

D |-------------------------------|
A |-------------------------------|
F |-------------------------------|
C |-------------------------------|
G |-------------------------------|         x8
A#|-5-4-4---4-5-5-5-2-2---2---2---|

(1:21)

D |-----------------------------------------------------------------------------------|
A |-----------------------------------------------------------------------------------|
F |-----------------2s8--------------------2s9-------------------2s8-/9\8/9--12\11/12-|
C |-----------------2s8--------------------2s9-------------------2s8-/9\8/9--12\11/12-|
G |-----------------------------------------------------------------------------------|        x2
A#|-0-1-----0-1------------0-1-1--1--0-1---------0-1-----0-1--------------------------|


[Verse]

(1:42)

D |-------------------------------|
A |-----1--------------0----------|
F |-------------------------------|
C |-------------------------------|
G |-3--------------2--------------|        x3
A#|-0-----------------------------|

D |-----------------------------------------------------------------|
A |-----------------------------------------------------------------|
F |-----------------------------------------------------------------|
C |---------5-5-5-4-4-4-4-------------------5-5-5-4-4-4-4-----------|
G |-----------------------------------------------------------------|
A#|-7-7-7-7---------------7-7-7-7-6-7-7-7-7---------------7-7-7-7-6-|


[Chorus]

(2:07)

D |-------------------------------|
A |-------------------------------|
F |-------------------------------|
C |-------------------------------|
G |-------------------------------|         x8
A#|-5-4-4---4-5-5-5-2-2---2---2---|

(2:28)

D |-----------------------------------------------------------------------------------|
A |-----------------------------------------------------------------------------------|
F |-----------------2s8--------------------2s9-------------------2s8-/9\8/9--12\11/12-|
C |-----------------2s8--------------------2s9-------------------2s8-/9\8/9--12\11/12-|
G |-----------------------------------------------------------------------------------|        x2
A#|-0-1-----0-1------------0-1-1--1--0-1---------0-1-----0-1--------------------------|
    

[Break]

(2:49)


[Chorus]

(3:09)

D |-------------------------------|
A |-------------------------------|
F |-------------------------------|
C |-------------------------------|
G |-------------------------------|         x8
A#|-5-4-4---4-5-5-5-2-2---2---2---|

D |-----------------------------------------------------------------|
A |-----------------------------------------------------------------|
F |-----------------------------------------------------------------|
C |---------5-5-5-4-4-4-4-------------------5-5-5-4-4-4-4-----------|
G |-----------------------------------------------------------------|
A#|-7-7-7-7---------------7-7-7-7-6-7-7-7-7---------------7-7-7-7-6-|

D |-------------------------------|
A |-------------------------------|
F |-------------------------------|
C |-------------------------------|
G |-------------------------------|         x8
A#|-5-4-4---4-5-5-5-2-2---2---2---|


[Outro]

(3:57)

D |---------------------|
A |---------------------|
F |-9\8-9\8-12\11-12\11-|
C |-9\8-9\8-12\11-12\11-|
G |---------------------|        
A#|---------------------|



***********************************
| /   Slide up
| \   Slide down
| s   Slap
************************************

            
            
Suggest correction
Creating personal tab
Creating personal tab
You can edit any tab online and save it as your Personal.

You can edit, replace or remove any tab part or add personal notes – all changes will be seen only by you.

Personal tabs can be accessed anytime from any device, even offline.
Learn more »
Give kudos to tab author, rate the tab!
1 2 3 4 5
comments
print report bad tab
6 comments total. Showing first comments.
-2 reply
forbiddenmist.o 96 Apr 29, 2016 05:05 AM

I just don't like it - no special reason

0 reply
ethomson 121 May 04, 2016 07:43 PM

Check out my 8 string version. Thank you!

guest
You may want to rate the tab now too:
select rating
Wanna post a correction for this tab? Suggest correction