Oops, an error
Loading. Please wait.

Be Quiet And Drive Tab

version 1
version 1

Whole song

Interactive

135,609 views 204 this week
12 commentsread comments
1 2 3 4 5
x 24
add to favorites
launch autoscroll
font size
0
reset
how to read this tab
guitar tuner
Autoscroll
slow
fast
+/-
esc
set tempo
stop
Help us to improve Ultimate-Guitar.com Take our survey!
×
-------------------------------------------------------------------------------
Be Quiet And Drive (far away) - Deftones
-------------------------------------------------------------------------------

Key
** = Palm Mute
// = Slide
() = Harmonics on the number inside!

Possibly the best Deftones Song to date in my book, so I’ve tabbed it out it
may look a bit confusing but you’ll get the hang of it!! Tune down half a 
step and drop D!  On the chorus bit you can just bend the strings up if you
feel comfortable doing that I just slide to get the sound!!  Well enjoy!! 
And tell me what you think!


[Intro] x4

e|-------------------/----------------------|
B|-------------------/----------------------|
G|-13-13-13-13-13-13-/-18-18-18-18-18-18----|
D|-x--x--x--x--x--x--/-x--x--x--x--x--x-----|
A|-12-12-12-12-12-12-/-17-17-17-17-17-17----|
D|-0--0--0--0--0--0--/-0--0--0--0--0--0-----|


[Verse 1] x3

e|----------------------------------------------------|
B|----------------------------------------------------|
G|-11-11-11-11-11-11-11-11--11-11-11-11-11-11-11-11---|
D|-x--x--x--x--x--x--x--x---11-11-11-11-11-11-11-11---|
A|-9--9--9--9--9--9--9--9---9--9--9--9--9--9--9--9----|
D|-0--0--0--0--0--0--0--0---9--9--9--9--9--9--9--9----|


[Verse 2]

e|----------------------------------------------------|
B|----------------------------------------------------|
G|-11-12-12-14-14-14-12-12--11-11-11-11-11-11-11-11---|
D|-x--x--x--x--x--x--x--x---11-11-11-11-11-11-11-11---|
A|-9--10-10-12-12-12-10-10--9--9--9--9--9--9--9--9----|
D|-0--0--0--0--0--0--0--0---9--9--9--9--9--9--9--9----|


[Verse 1] x4

e|----------------------------------------------------|
B|----------------------------------------------------|
G|-11-11-11-11-11-11-11-11--11-11-11-11-11-11-11-11---|
D|-x--x--x--x--x--x--x--x---11-11-11-11-11-11-11-11---|
A|-9--9--9--9--9--9--9--9---9--9--9--9--9--9--9--9----|
D|-0--0--0--0--0--0--0--0---9--9--9--9--9--9--9--9----|


[Instrumental] x4

e|-------------------/----------------------|
B|-------------------/----------------------|
G|-13-13-13-13-13-13-/-18-18-18-18-18-18----|
D|-x--x--x--x--x--x--/-x--x--x--x--x--x-----|
A|-12-12-12-12-12-12-/-17-17-17-17-17-17----|
D|-0--0--0--0--0--0--/-0--0--0--0--0--0-----|


[Chorus] x2

e|----------------------------------------------------|
B|----------------------------------------------------|
G|-11/12-11/12-11/12-11-11--11-11-11-11-11-11-11-11---|
D|-x-/x--x-/x--x-/x--x--x---11-11-11-11-11-11-11-11---|
A|-9-/10-9-/10-9-/10-9--9---9--9--9--9--9--9--9--9----|
D|-0-/0--0-/0--0-/0--0--0---9--9--9--9--9--9--9--9----|


[Verse 1] x3

e|----------------------------------------------------|
B|----------------------------------------------------|
G|-11-11-11-11-11-11-11-11--11-11-11-11-11-11-11-11---|
D|-x--x--x--x--x--x--x--x---11-11-11-11-11-11-11-11---|
A|-9--9--9--9--9--9--9--9---9--9--9--9--9--9--9--9----|
D|-0--0--0--0--0--0--0--0---9--9--9--9--9--9--9--9----|


[Verse 2]

e|----------------------------------------------------|
B|----------------------------------------------------|
G|-11-12-12-14-14-14-12-12--11-11-11-11-11-11-11-11---|
D|-x--x--x--x--x--x--x--x---11-11-11-11-11-11-11-11---|
A|-9--10-10-12-12-12-10-10--9--9--9--9--9--9--9--9----|
D|-0--0--0--0--0--0--0--0---9--9--9--9--9--9--9--9----|


[Instrumental] x4

e|-------------------/----------------------|
B|-------------------/----------------------|
G|-13-13-13-13-13-13-/-18-18-18-18-18-18----|
D|-x--x--x--x--x--x--/-x--x--x--x--x--x-----|
A|-12-12-12-12-12-12-/-17-17-17-17-17-17----|
D|-0--0--0--0--0--0--/-0--0--0--0--0--0-----|


[Chorus] x4

e|----------------------------------------------------|
B|----------------------------------------------------|
G|-11/12-11/12-11/12-11-11--11-11-11-11-11-11-11-11---|
D|-x-/x--x-/x--x-/x--x--x---11-11-11-11-11-11-11-11---|
A|-9-/10-9-/10-9-/10-9--9---9--9--9--9--9--9--9--9----|
D|-0-/0--0-/0--0-/0--0--0---9--9--9--9--9--9--9--9----|


[Bridge 1] x2

e|--------------------------------------------|
B|--------------------------------------------|
G|--------------------------------------------|
D|-0-0-0-(4)-0-0-0-(2)-0-0-0-(4)-33-44-5------|
A|-0-0-0-(4)-0-0-0-(2)-0-0-0-(4)-33-44-5------|
D|-0-0-0-(4)-0-0-0-(2)-0-0-0-(4)-33-44-5------|


[Bridge 2]

e|---------------------------------------|
B|---------------------------------------|
G|---------------------------------------|
D|-0-0-0-00-0-0-0-00-0-0-0-00-33-44-5----|
A|-0-0-0-00-0-0-0-00-0-0-0-00-33-44-5----|
D|-0-0-0-00-0-0-0-00-0-0-0-00-33-44-5----|
         **       **       **


[Bridge 1]

e|--------------------------------------------|
B|--------------------------------------------|
G|--------------------------------------------|
D|-0-0-0-(4)-0-0-0-(2)-0-0-0-(4)-33-44-5------|
A|-0-0-0-(4)-0-0-0-(2)-0-0-0-(4)-33-44-5------|
D|-0-0-0-(4)-0-0-0-(2)-0-0-0-(4)-33-44-5------|


[SONG LAYOUT]

Intro x4
Verse 1 x3
Verse 2
Verse 1 x4
Intro x4
Chorus x2
Verse 1 x3
Verse 2
Intro x4
Chorus x4
Bridge 1 x2
Bridge 2
Bridge 1

Then just play the chorus till fades out I usually play it about 4 
times and the play the bridge over again as it sounds cool once you 
get it!  Well please rate and e-mail any comments if ya like!
e-mail – funkeymonkey10@hotmail.com


************************************

| x    Dead note
| (n)  Ghost note
| /    Slide up
| *    Palm Mute

************************************
Suggest correction
comments
print report bad tab
12 comments total. Showing first comments.
+3 reply
xxwitedevil66 30 Apr 13, 2003 12:00 AM

raaaaaaaa

+1 reply
BainsStatic 10 Mar 02, 2004 12:00 AM

i watched this song live on conan o'brien, steph DOES bend the strings and DOES NOT slide from 9x11 to 10x12.. just an fyi..

+1 reply
Mosquitocoil 20 Mar 27, 2004 12:00 AM

Beautiful tab...absolutely perfect in my opinion, just that sliding up is bending, but that's been cleared up. ***** 5 stars

guest
You may want to rate the tab now too:
select rating
Wanna post a correction for this tab? Suggest correction