Oops, an error
Loading. Please wait.
We have an official Be Quiet And Drive tab made by UG professional guitarists. Check out the tab »
×
8,255 views 3 this week
no commentswrite comment
1 2 3 4 5
x 3
add to favorites
×
Save as Personal and add changes to this tab that will be seen only by you. Learn more ›
×
You can save this tab as Personal to edit and correct it or add notes. All changes will be seen only by you. Learn more »
launch autoscroll
font size
0
reset
how to read this tab
guitar tuner
backing track
0:00
0:00
edit
Autoscroll
slow
fast
+/-
esc
set tempo
stop
Song: Be Quiet and Drive (Far Away)
Band: Deftones
Album: Around the Fur (1997)
Tabbed by: Hiv
mailto: korn_fan@mail.ru
Tune: standard Deft Tune (low to high): c#/g#/c#/f#/a#/d#

Intro

  riff 1
D#|--------------------------------------|
A#|--------------------------------------|
F#|-/13-13-13-13/18-18-18-18\------------|
C#|--------------------------------------|
G#|-/12-12-12-12/17-17-17-17\------------|
C#|--------------------------------------|

  riff 2
D#|--------------------------------------|
A#|--------------------------------------|
F#|-/13-13-13-13/18-18\\-----------------|
C#|--------------------------------------|
G#|-/12-12-12-12/17-17\\-----------------|
C#|--------------------------------------|

Verse

D#|----------------------------------------------------------|
A#|----------------------------------------------------------|
F#|-11--11-11--1111--11-----11-11-11--12\--1111-11---11-12\--|
C#|--x---x--x---x-x---x-----11-11-11--12\--1111-11---11-12\--|
G#|--9---9--9---9-9---9------9--9--9---9----9-9--9----9--9---|
C#|--0---0--0---0-0---0------9--9--9---9----9-9--9----9--9---|

verse variation (Second Guitar)
(it's like "turun-turun-tun-tun-tu-tu-ruun!!!")

D#|-------------------------------------------------------------------|
A#|-------------------------------------------------------------------|
F#|-11/12--12/14--14/12-12-12-12\11--11-11-11--12\--1111-11---11-12\--|
C#|--x/-x---x/-x---x/-x--x--x--x--x--11-11-11--12\--1111-11---11-12\--|
G#|--9/10--10/12--12/10-10-10-10\-9---9--9--9---9----9-9--9----9--9---|
C#|-----------------------------------9--9--9---9----9-9--9----9--9---|

Chorus

D#|--------------------------------------|
A#|--------------------------------------|
F#|-/13-13-13-13/18-18-18-18\------------|
C#|--------------------------------------| repeat this (see the structure below!)
G#|-/12-12-12-12/17-17-17-17\------------|
C#|--------------------------------------|

Interlude

D#|---------------------------------------------------------------------|
A#|---------------------------------------------------------------------|
F#|----11^---11^------1111----11^--------11-11-11-12\--1111-11---11-12\-|
C#|-----x-----x--------x-x-----x---------11-11-11-12\--1111-11---11-12\-|
G#|-----9^----9^-------9-9-----9^---------9--9--9--9----9-9--9----9--9--|
C#|-(0)---(0)-----(0)------(0)------------9--9--9--9----9-9--9----9--9--|

Bridge

D#|------------------------------------------------------|
A#|------------------------------------------------------|
F#|------------------------------------------------------|
C#|-0-0-*4-*4-*4--0-0-*6-*6-*6--0-0-*4-*4-*4---3/444/555-|
G#|-0-0-*4-*4-*4--0-0-*6-*6-*6--0-0-*4-*4-*4---3/444/555-|
C#|-0-0-*4-*4-*4--0-0-*6-*6-*6--0-0-*4-*4-*4---3/444/555-|

D#|------------------------------------------------------|
A#|------------------------------------------------------|
F#|------------------------------------------------------|
C#|-0-0-*6-*6-*6--0-0-*4-*4-*4--0-0-*6-*6-*6---3/444/555-|
G#|-0-0-*6-*6-*6--0-0-*4-*4-*4--0-0-*6-*6-*6---3/444/555-|
C#|-0-0-*6-*6-*6--0-0-*4-*4-*4--0-0-*6-*6-*6---3/444/555-|

D#|------------------------------------------------------|
A#|------------------------------------------------------|
F#|------------------------------------------------------|
C#|-0-0-*1-*1-*1--0-0-*1-*1-*1--0-0-*4-*4-*4---3/444/555-|
G#|-0-0-*1-*1-*1--0-0-*1-*1-*1--0-0-*4-*4-*4---3/444/555-|
C#|-0-0-*1-*1-*1--0-0-*1-*1-*1--0-0-*4-*4-*4---3/444/555-|

D#|---------------------------------------------------------|
A#|---------------------------------------------------------|
F#|---------------------------------------------------------|
C#|-0-0-*7-*7-*7--0-0-*9-*9-*9--0-0-*4-*4-*4---3/444/555-0:-|
G#|-0-0-*7-*7-*7--0-0-*9-*9-*9--0-0-*4-*4-*4---3/444/555-0:-|
C#|-0-0-*7-*7-*7--0-0-*9-*9-*9--0-0-*4-*4-*4---3/444/555-0:-|

Interlude (Variations) (Outro)

D#|-------------------------------------------------------------------------|
A#|-------------------------------------------------------------------------|
F#|----12\11^---11^------1111----11^--------11-11-11-12\--1111-11---11-12\--|
C#|-----x--x-----x--------x-x-----x---------11-11-11-12\--1111-11---11-12\--|
G#|----10\-9^----9^-------9-9-----9^---------9--9--9--9----9-9--9----9--9---|
C#|-(0)------(0)-----(0)------(0)------------9--9--9--9----9-9--9----9--9---|

  then
D#|----------------------------------------------------------------------------|
A#|----------------------------------------------------------------------------|
F#|----12\11^---11^------1111----12\11^--------11-11-11-12\--1111-11---11-12\--|
C#|-----x--x-----x--------x-x-----x--x---------11-11-11-12\--1111-11---11-12\--|
G#|----10\-9^----9^-------9-9----10\-9^---------9--9--9--9----9-9--9----9--9---|
C#|-(0)------(0)-----(0)------(0)---------------9--9--9--9----9-9--9----9--9---|

And slowly the song fades out,
before it turns sharply into "Lotion", but that's another story.
That's it! 
Thank you for using!!!

song structure:
1.Intro riff 1 x3, riff 2 1x 
2.Verse x3
3.Verse variation x1 (second guitar)
4.Verse x4
5.Interlude x2
6.Verse x2
7.Verse variation x1 (second guitar)
8.Chorus x4
9.Interlude x2
10.Verse x3
11.Verse variation x1 (second guitar)
12.Chorus x4
13.Interlude x4
14.Bridge x1
15.Interlude x?
16.Interlude (Variations)
(Outro)


| :  Let ring
| PM Palm mute
| /  slide up
| \  slide down
| h  hammer-on
| p  pull-off
| ~  vibrato
| +  harmonic
| x  Mute note

            
            
Suggest correction
Creating personal tab
Creating personal tab
You can edit any tab online and save it as your Personal.

You can edit, replace or remove any tab part or add personal notes – all changes will be seen only by you.

Personal tabs can be accessed anytime from any device, even offline.
Learn more »
Give kudos to tab author, rate the tab!
1 2 3 4 5
comments
print report bad tab
guest
You may want to rate the tab now too:
select rating
Wanna post a correction for this tab? Suggest correction