Oops, an error
Loading. Please wait.

Beauty School tab

version 1
version 1

Whole song

Interactive

28,990 views 36 this week
no commentswrite comment
1 2 3 4 5
x 10
add to favorites
×
Save as Personal and add changes to this tab that will be seen only by you. Learn more ›
×
You can save this tab as Personal to edit and correct it or add notes. All changes will be seen only by you. Learn more »
launch autoscroll
font size
0
reset
how to read this tab
guitar tuner
edit
Autoscroll
slow
fast
+/-
esc
set tempo
stop
Tabbed by: Daniel Frings
Email:Any errors or corrections feel free to comment or send me
an email at: daniel.frings@hotmail.com

Tuning:CGCFAD

[Intro]
0.00-0.22

Guitar 1
D|----4--8---4---6---------4--8---4---6---|     |----4-4/| 
A|-6--------------------6---------------6-|     |-6------|
F|----------------------------------------|     |--------|
C|----------------------------------------|     |--------|
G|----------------------------------------|     |--------|
C|----------------------------------------|(x2) |--------|

Guitar 2 
(a set of chords?)
D|----------------------------------------------------|
A|----------------------------------------------------|
F|----------------------------------------------------|
C|----------------------------------------------------|
G|----------------------------------------------------|
C|----------------------------------------------------|


[Verse]
0.22-0.40

Guitar 1
D|-/8-8-8-8-8-8-8-8-----------------------------------| 
A|----------------------------------------------------|
F|----------------------------------------------------|
C|----------------------------------------------------|
G|----------------------------------------------------|
C|----------------------------------------------------|(x7)

Guitar2
D|----------------------------------------------------|
A|----6-6-6-------------------------------------------|
F|----------5-5-5-5~~---------------------------------|
C|----------------------------------------------------|
G|----------------------------------------------------|
C|----------------------------------------------------|(x7)

[Verse] (cont) 
0.40-0.49
Guitar 1
D|-8-8-8-8-8\-3333/4-4444444/6-6666666/8-8[x16]-------|
A|----------------------------------------------------|
F|----------------------------------------------------|
C|----------------------------------------------------|
G|----------------------------------------------------|
C|----------------------------------------------------|


[Pre-Chorus]
0.49-0.58 

          ^           ^           ^           ^ bend
D|-11--1111---11--1111---11--1111---11--1111----------|
A|--9---9-9----9---9-9----9---9-9----9---9-9----------|
F|--8---8-8----8---8-8----8---8-8----8---8-8----------|
C|----------------------------------------------------|
G|----------------------------------------------------|
C|----------------------------------------------------|


[Chorus]
0.58-1.29

Guitar 1
D|----------------------------------------------------|
A|----------------------------------------------------|
F|--8-[x32] -5-[x16]--8-[x32]--10-[x32]---------------|
C|--6--------3--------6--------8----------------------|
G|--6--------3--------6--------8----------------------|
C|--6--------3--------6--------8----------------------|
[x##] <--denotes number of times to play that chord

Guitar 2
D|--11-[x32]-8-[x16]--8--[x32]-13-[x32]---------------|
A|--9--------6--------9--------11---------------------|
F|--8--------5--------8--------10---------------------|
C|----------------------------------------------------|
G|----------------------------------------------------|
C|----------------------------------------------------|

Guitar 3 (can be played simultaneously with Guitar 1)
d|--8[x32]-6[x16]-8[x32]-6[x32]-----------------------|
A|--9------6------9------6----------------------------|
F|--8------5------8------5----------------------------|
C|----------------------------------------------------|
G|----------------------------------------------------|
C|----------------------------------------------------|

Prechorus 1.29 - 1.38
Intro 1.42-1.52
Verse 1.52-2.09
Verse (cont) 2.09-2.19
Prechorus 2.19-2.28
Chorus 2.28 - 2.58
Intro 2.58- 3.07

Modified Chorus 3.07-4.11
Guitar 3 plays this under the chorus section more prominently this time around.

Guitar 3
   x1
d|---|--8[x32]-6[x16]-8[x32]-6[x32]-------------------|
A|---|--9------6------9------6------------------------|
F|---|--8------5------8------5------------------------|
C|---|------------------------------------------------|
G|-3-|------------------------------------------------|
C|-3-|------------------------------------------------|(x2)

[Outro]

4.11-4.44 (still very rough)

4.11-4.14
D|----------------------------------------------------|
A|----8-8-8-8-8-8-8-8---------------------------------|
F|----------------------------------------------------|
C|----------------------------------------------------|
G|----------------------------------------------------|
C|----------------------------------------------------|

4.14
D|------8---8---8---8---------------------------------|
A|--9-9---9---9---9---9-------------------------------|
F|-----------------------8----------------------------|
C|----------------------------------------------------|
G|----------------------------------------------------|
C|----------------------------------------------------|

4.17
D|--------8---8---8---8-------------------------------|
A|----9-9---9---9---9---9-----------------------------|
F|------------------------8--8-8-8-8------------------|
C|----------------------------------------------------|
G|----------------------------------------------------|
C|----------------------------------------------------|

d|-------------8---8---8---8--------------------------|
A|---------------9---9---9---9------------------------|
F|-8--8-8-8-8-----------------------------------------|
C|----------------------------------------------------|
G|----------------------------------------------------|
C|----------------------------------------------------|


************************************

| /  Slide up
| ~  Vibrato
| \  Slide down
| x   Mute not

************************************
Suggest correction
Creating personal tab
Creating personal tab
You can edit any tab online and save it as your Personal.

You can edit, replace or remove any tab part or add personal notes – all changes will be seen only by you.

Personal tabs can be accessed anytime from any device, even offline.
Learn more »
comments
print report bad tab
guest
You may want to rate the tab now too:
select rating
Wanna post a correction for this tab? Suggest correction