Oops, an error
Loading. Please wait.

Beware bass

version 1
version 1

Whole song

Interactive

3,283 views 3 this week
1 commentread comment
1 2 3 4 5
x 4
add to favorites
×
Save as Personal and add changes to this tab that will be seen only by you. Learn more ›
×
You can save this tab as Personal to edit and correct it or add notes. All changes will be seen only by you. Learn more »
launch autoscroll
font size
0
reset
guitar tuner
backing track
0:00
0:00
edit
Autoscroll
slow
fast
+/-
esc
set tempo
stop
deftones
"beware"
saturday night wrist

intro: no bass

verse:
F|-----------------------|
C|---------10------------|
G|\8~~~~~~---8h10-5~~~~~5|
C|-----------------------|

"do you like the way the water taste?" part

F|------------------------------------------------------------------------|
C|-------10-------------------10-----------10-------------------10--------|
G|\8~~~~~--8h10-5~~~~~5-\8~~~~~--8h10-8~~~~~--8h10-5~~~~5-\8~~~~---8h10-5~|
C|------------------------------------------------------------------------|

chorus:
F|---------------------------------|
C|---------3~~~~~3h5------3-3-3\5-5|
G|---------------------------------|
C|0~~~~~~~~~--------0~~~~~~--------|

Then you go back to the verse.

After 2nd chorus:
"oooo hooo" part
F|-------------------------------|
C|-------------------------------| x2
G|----------------4-4-4-4-4-4-4-4|
C|5-5-5-5-5-5-5-5----------------|

"teeth are dry" part
come in when drums come in (i think)
F|--------------|
C|--------------|
G|65656565656565| keep doing this until chino sings "there you go"
C|--------------| and the drums do a little fill

Chorus: same as before except a little longer

"oooo hooo" part: same as before except a little longer

Just for fun hold this note G|--12--| when all you hear is feedback then

Heavy part (my favorite):
F|--------------------------|
C|--------------------------| repeat as needed
G|-----------------------1~~| listen to the song to get the rhythm
C|0-0-1-0-0-6431-0-0-1-0----|

end on G|--1(hold)|

this my take on the song.most of it is right i think but the Heavy part i'm not sure,i
did it the best i could

thank you

            
            
Suggest correction
Creating personal tab
Creating personal tab
You can edit any tab online and save it as your Personal.

You can edit, replace or remove any tab part or add personal notes – all changes will be seen only by you.

Personal tabs can be accessed anytime from any device, even offline.
Learn more »
comments
print report bad tab
1 comment total.
0 reply
Coolpix56 72 Feb 02, 2011 04:25 PM

Great tab dude. This tab saved me in a tight spot, thanks much!

guest
Wanna post a correction for this tab? Suggest correction