Oops, an error
Loading. Please wait.

Birthmark Tab

version 2
version 2

Whole song

Interactive

2,215 views 1 this week
1 commentread comment
1 2 3 4 5
please rate
add to favorites
launch autoscroll
font size
0
reset
how to read this tab
guitar tuner
Tab Pro tools
  • play this tab
  • loop segment
  • change instrument
  • show fretboard
  • metronome
×
Best way to learn
"Birthmark"
Autoscroll
slow
fast
+/-
esc
set tempo
stop
Contributor
This is a 100% correct version of "Birthmark" from the Deftones. Not the most
popular song, but I think it is the best on the album and it sonds great on an amp.

Tab by LaOF

Tuning: EADGBE Standard (as with most of the first album)

Album: Adrenaline

Music by: Stephen Carpenter, Camilo "Chino" Merino, Abe Cuningham, and Chi Chang 

Use MAX gain or distortion

Inro (played at difrents speeds and times, listin to song)
1|-12----
2|--11---
3|---10--
4|-------
5|-------
6|-------

Drums enter (let it ring out) Fill
1|---
2|---
3|---
4|-5->
5|-x-
6|-0->


Main Riff
1|---------------------------------------------------------------
2|---------------------------------------------------------------
3|---------------------------------------------------------------
4|-------------------------5^-----5--5--5-5--5--5-5--5--5-5^-----
5|---------------------------5-7----------------------------5--7-
6|-0--0--0-0--0--0-0--0--0--------0--0--0-0--0--0-0--0--0--------

Coarse
1|-----------------
2|-----------------
3|-----------------
4|-----------------
5|-2--5-5-4-44-44--
6|-0--3-3-2-22-22--

2nd verse         (all PM.)
1|-------------------------------------
2|-------------------------------------
3|-------------------------------------
4|-------------------------------------
5|-------------------------------------
6|-0--0-0--12--12-12--0--0-0--12--12-12

Bridge Part 1 (Fallowed by rapid skrapeing)
1|-0------0--------0-
2|-0------0--------0-
3|-0------0-7------0-
4|----------7--------
5|----------5--------
6|-------------------

Bridge part 2

1|--------------------------
2|--------------------------
3|--------------------------
4|-------9--9-9--7-9-12-7-9-
5|-2--2-/7--7-7--5-7-10-5-7-
6|-0--0---------------------

Bidge part 3
1|--------------------------
2|--------------------------
3|--------------------------
4|--------------------------
5|-------7--7-7--5-7-10-5-7-
6|-0--0---------------------

Bridge part 4 
1|------------------------------
2|------------------------------
3|------------------------------
4|------------------------------
5|-------7--7-7--5-7-10--10-/12-
6|-0--0-------------------------

Outro
1|------0-->
2|------0--> Let it ring out
3|------0-->
4|-7-------
5|-5-------
6|---------


KEY:

Intro
Fill 
Main Riff X4
Coarse X4
Fill
Main riff X 4
Coase X4
Fill
2nd Verse
Mian Riff X 4
Coarse X8
Birdge part 1
Skrape!!!
Bridge part 2 X4
Bridge Part 3 X3
Bridge part 4 X1
Bridge part 2 X4 
Outro
comments
We did not receive enough feedback on this tab! Please rate:
print report bad tab
1 2 3 4 5
1 comment total.
0 reply
chad_racine wrote on November 24 2004, 12:00 am

This a really good tab.

I want to post or [tab]
guest
You may want to rate the tab now too:
select rating
Please do not post tabs as comments. Select "correction" instead!