Oops, an error
Loading. Please wait.

Bored Tab

version 4
version 4
3,217 views 1 this week
no commentswrite comment
1 2 3 4 5
x 3
add to favorites
launch autoscroll
font size
0
reset
how to read this tab
guitar tuner
×
Best way to learn
"Bored"
Autoscroll
slow
fast
+/-
esc
set tempo
stop
Artist: Deftones
Song: Bored
Album: Adrenaline
Tabber:james silver
Email:tool_rockboy@msn.com

Tuning EADGBe - like all songs from Adrenaline

Verse:
e|-----------------|
B|-----------------|
G|-----------------|            
D|--888-7--8-7~----|            
A|--666-5--6-5~----|
E|--666-5--6-5~----|
  pm............

Chorus:
e|----------------------------|
B|----------------------------|
G|----------8--8-8--7-7-7-7-7-|
D|--5-5-5---8--8-8--7-7-7-7-7-|
A|--5-5-5---6--6-6--5-5-5-5-5-|
E|--3-3-3---------------------|

Pre-Verse/Outro:                        
e|-------------|
B|-------------|
G|-------------|
D|--888-7--8---|
A|--666-5--6---|
E|--666-5--6---|

Bridge:                 * = Harmonics
e|---------------------||---------0~----------|
B|---------------------||--*****--0~----------|
G|---------------------||--44444--4~----------|
D|--5555--5-5-55--5-5--||--55555--5~----------|
A|--5555--5-5-55--5-5--||---------------------|
E|--3333--3-3-33--3-3--||---------------------|



Thats about it, pretty tricky to get the Verse
to sound right.  But, if you practice enough it will
sound good.
Suggest correction
Give kudos to tab author, rate the tab!
1 2 3 4 5
comments
print report bad tab
guest
You may want to rate the tab now too:
select rating
Wanna post a correction for this tab? Suggest correction