Oops, an error
Loading. Please wait.

Cherry Waves tab

version 1
version 1

Whole song

Interactive

4,103 views 15 this week
no commentswrite comment
1 2 3 4 5
2 more votes to show rating
add to favorites
×
Save as Personal and add changes to this tab that will be seen only by you. Learn more ›
×
You can save this tab as Personal to edit and correct it or add notes. All changes will be seen only by you. Learn more »
launch autoscroll
font size
0
reset
how to read this tab
guitar tuner
backing track
0:00
0:00
edit
Autoscroll
slow
fast
+/-
esc
set tempo
stop
Author
Difficulty
Deftones
Cherry Waves
Saturday Night Wrist

tabbed by: Tom Olejnicak

tjolejniczak@msn.com

Same tuning as White Pony, CGCFAD

Intro/Verses (played by Frank but transcribed for guitar)
 Play with heavy echo/delay
D|-----------------------|
A|-----------------------|
F|-----18---------18-----|
C|--16----17---16----13--|
G|-----------------------|
C|-----------------------|

Pre-Chorus ("The Waves...)

D|-----|
A|-----| (Strum this chord for
F|--11-|  8 measures/32 times)
C|--11-|
G|--9--|
C|--9--|

Chorus ("If like you-ou-ou...)

D|-----------------|
A|-----------------|
F|-4-------4-------|
C|-2-------4-------|
G|-2-(x16)-2-(x16)-|
C|-2---------------|

Last time play this:

D|--------------------------------------| ^ = bend
A|--------------------------------------|
F|-4-4-4-4-4-4-4-4-4-4-4-4-4-4-4-4----4~| ~ = let ring
C|-2-2-2-2-2-2-2-2-2-2-2-2-2-2-2-2----4~|
G|-2-2-2-2-2-2-2-2-2-2-2-2-2-2-2-2-2^-2~|
C|-2-2-2-2-2-2-2-2-2-2-2-2-2-2-2-2----2~|

Post-Chorus
 heavy echo/delay
D|----------------|
A|--16/17---------|
F|---------16-----| play 2x, also played over
C|------------17--| the end of the last choruses
G|----------------|
C|----------------|

Last Choruses are the same as the first, but when Chino
starts singing "Is that what you want..." throw in the
bends before the chord changes.

Bridge

D|------------------------------------------------|
A|------------------------------------------------|
F|------------------------------------------------| (2X)
C|------------------------------------------------|
G|------------------------------------------------|
C|-4-4-4-4--2--5--5-5-5-2--4-4-4-4--2--5--5-5-5-2-|

then bang on this chord

D|---|
A|---|
F|-6-|
C|-4-|
G|-4-|
C|-4-|

and layer this high part over it

D|-7-7-7-7-7-7-7-7-7-7-7-7-7-7-7-7--6-6-6-6-6-6-6-6-6-6-6-6-6-6-6-6-|
A|-7-7-7-7-7-7-7-7-7-7-7-7-7-7-7-7--7-7-7-7-7-7-7-7-7-7-7-7-7-7-7-7-|
F|------------------------------------------------------------------|
C|------------------------------------------------------------------|
G|------------------------------------------------------------------|
C|------------------------------------------------------------------|

Then play the last Chorus until the quiet part,
then the intro riff to the end.

I'm about 99% sure on this. Any questions feel free to e-mail.

            
            
Suggest correction
Creating personal tab
Creating personal tab
You can edit any tab online and save it as your Personal.

You can edit, replace or remove any tab part or add personal notes – all changes will be seen only by you.

Personal tabs can be accessed anytime from any device, even offline.
Learn more »
Give kudos to tab author, rate the tab!
1 2 3 4 5
comments
print report bad tab
guest
You may want to rate the tab now too:
select rating
Wanna post a correction for this tab? Suggest correction