Oops, an error
Loading. Please wait.

Cherry Waves bass

version 2
version 2

Whole song

Interactive

3,835 views 3 this week
4 commentsread comments
1 2 3 4 5
1 last vote to show rating
add to favorites
×
Save as Personal and add changes to this tab that will be seen only by you. Learn more ›
×
You can save this tab as Personal to edit and correct it or add notes. All changes will be seen only by you. Learn more »
launch autoscroll
font size
0
reset
guitar tuner
backing track
0:00
0:00
edit
Autoscroll
slow
fast
+/-
esc
set tempo
stop
Difficulty
Hello everyone my name is Andrew Viramontes, I'm a huge deftones fan that
has been playing all of thier music non-stop. I'll be damn if someone makes
a correction on my tabbing. tho this is my first on-line tab, I made sure of every thing
this song. looks quiet difficult but it's simple, I learn the whole album in 3 minutes
if you have any questions about it feel free to write me back at def_tones_56@yahoo.com. 
you want to understand the song better listen to Cherry waves and follow along.Good luck

G |-------------------------4-------/7-|
D |-----6-7-------7-----6-7----6-------|repeat 8x
A |0--7------0--7----0-----------------|
D |------------------------------------|


Prechorus (0:46)
G |----------------------------4-----/7|
D |---------7----------------6---6-----|repeat 4x
A |-0-0-0--7---0-0-0-0-0-0-------------|
D |------------------------------------|


Chorus (1:02)
G |---------------------------------|
D |---------------------------------|
A |-5-5-5-5-5-5-5-5-5-5-5-5-5-5-5-5-|
D |---------------------------------|

G |-----------------------------------|
D |-----------------------------------|
A |-2-2-2-2-2-2-2-2-2-2-2-2-----------|
D |-----------------------------------|


G |---------------------------------|
D |---------------------------------|
A |-5-5-5-5-5-5-5-5-5-5-5-5-5-5-5-5-|
D |---------------------------------|


G |-----------------------------------|
D |-----------------------------------|
A |-2-2-2-2-2-2-2-2-2-2-2-2-----------|
D |-----------------------------------|

G |---------------------------------|
D |---------------------------------|
A |-5-5-5-5-5-5-5-5-5-5-5-5-5-5-5-5-|
D |---------------------------------|

G |------------------------------------|
D |------------------------------------|
A |-2-(ring out)-----------------------|
D |------------------------------------|

~~~~~~~~~~~~~~~~~~~~~~~~~~~~~~~~~~~~~~~~~~~~~~~~~~~~~~~~~~~~~~
(intro(1:40))
G |-------------------------4-------/7-|
D |-----6-7-------7-----6-7----6-------|repeat 8x
A |0--7------0--7----0-----------------|
D |------------------------------------|


(Prechorus 2:11)
G |----------------------------4-----/7|
D |---------7----------------6---6-----|repeat 4x
A |-0-0-0--7---0-0-0-0-0-0-------------|
D |------------------------------------|


(Chorus 2:27)
G |---------------------------------|
D |---------------------------------|
A |-5-5-5-5-5-5-5-5-5-5-5-5-5-5-5-5-|
D |---------------------------------|

G |-----------------------------------|
D |-----------------------------------|
A |-2-2-2-2-2-2-2-2-2-2-2-2---/7-7-7-7|
D |-----------------------------------|


G |---------------------------------|
D |---------------------------------|
A |-5-5-5-5-5-5-5-5-5-5-5-5-5-5-5-5-|
D |---------------------------------|


G |-----------------------------------|
D |-----------------------------------|
A |-2-2-2-2-2-2-2-2-2-2-2-2---0-0-0-0-|
D |-----------------------------------|

G |---------------------------------|
D |---------------------------------|
A |-5-5-5-5-5-5-5-5-5-5-5-5-5-5-5-5-|
D |---------------------------------|

G |-----------------------------------|
D |-----------------------------------|
A |-2-2-2-2-2-2-2-2-2-2-2-2---/7-7-7-7|
D |-----------------------------------|

G |---------------------------------|
D |---------------------------------|
A |-5-5-5-5-5-5-5-5-5-5-5-5-5-5-5-5-|
D |---------------------------------|


G |---------------------------------------|
D |---------------------------------------|
A |-2-2-2-2-2-2-2-2-2-2-2-2-2-2-2-2-------|
D |---------------------------------------|

(Bridge 2:57)
G |---------------------------------------|
D |---------------------------------------|
A |-7-7-7-\5-/8-8-8-8-8-8-\5--------------|repeat4x
D |---------------------------------------|

G |---------------------------------|
D |---------------------------------|
A |-7-7-7-7-7-7-7-7-7-7-7-7-7-7-7-7-|
D |---------------------------------|

G |----------------------------------------------------|
D |----------------------------------------------------|
A |-7-7-7-7-7-7-7-7-7-7-7-7-7-7-7-7-7/-14-14-14-14-14--|
D |----------------------------------------------------|

G |----------------------------------------------------|
D |----------------------------------------------------|
A |14-14-14-14-14-14-14-14-14-14-14\7-7-7-7-7-7-7-7-7-7|
D |----------------------------------------------------|


G |----------------------------------------------------|
D |----------------------------------------------------|
A |7-7-7-----------------------------------------------|
D |----------------------------------------------------|

(Chorus 3:28)
G |---------------------------------|
D |---------------------------------|
A |-5-5-5-5-5-5-5-5-5-5-5-5-5-5-5-5-|
D |---------------------------------|

G |-----------------------------------|
D |-----------------------------------|
A |-2-2-2-2-2-2-2-2-2-2-2-2---/7-7-7-7|
D |-----------------------------------|


G |---------------------------------|
D |---------------------------------|
A |-5-5-5-5-5-5-5-5-5-5-5-5-5-5-5-5-|
D |---------------------------------|


G |-----------------------------------|
D |-----------------------------------|
A |-2-2-2-2-2-2-2-2-2-2-2-2-2--0-0-0--|
D |-----------------------------------|

G |---------------------------------|
D |---------------------------------|
A |-5-5-5-5-5-5-5-5-5-5-5-5-5-5-5-5-|
D |---------------------------------|

G |-----------------------------------|
D |-----------------------------------|
A |-2-2-2-2-2-2-2-2-2-2-2-2---0-0-0---|
D |-----------------------------------|

G |---------------------------------|
D |---------------------------------|
A |-5-5-5-5-5-5-5-5-5-5-5-5-5-5-5-5-|
D |---------------------------------|


G |---------------------------------------|
D |---------------------------------------|
A |-7-0-(ring out)------------------------|
D |---------------------------------------|

            
            
Suggest correction
Creating personal tab
Creating personal tab
You can edit any tab online and save it as your Personal.

You can edit, replace or remove any tab part or add personal notes – all changes will be seen only by you.

Personal tabs can be accessed anytime from any device, even offline.
Learn more »
Give kudos to tab author, rate the tab!
1 2 3 4 5
comments
print report bad tab
4 comments total. Showing first comments.
+1 reply
AtreyuHxCKid666 31 Jun 10, 2007 11:27 AM

theres no way you learned the saturday night wirst in 3 minutes. thats impossible.

+1 reply
MikeyFatStrings 10 Apr 06, 2008 08:39 AM

is the drop D really necessary?

+1 reply
RobertiusB 10 Jul 24, 2008 01:43 AM

Lol to learn Saturday Night Wrist you'd have to listen to the whole thing at least once, wich would take what, 50 mins, an hour? Then you'd have to learn and remember it all. We can hereby can conclude that FANBOY IS A LIAR!!!

guest
Wanna post a correction for this tab? Suggest correction