Oops, an error
Loading. Please wait.

Cherry Waves tab

version 4
version 4

Whole song

Interactive

1,732 views 1 this week
4 commentsread comments
1 2 3 4 5
2 more votes to show rating
add to favorites
×
Save as Personal and add changes to this tab that will be seen only by you. Learn more ›
×
You can save this tab as Personal to edit and correct it or add notes. All changes will be seen only by you. Learn more »
launch autoscroll
font size
0
reset
how to read this tab
guitar tuner
backing track
0:00
0:00
edit
Autoscroll
slow
fast
+/-
esc
set tempo
stop
Deftones - "Cherry Waves"
Album: Saturday Night Wrist
Tabbed by: S2S (Cory McKnight)
Email: sic133mhz@hotmail.com

Tuning: Drop C (CGCFAD)

Intro/Verse:
Not much going on here guitar wise, this is probably 
played by Frank, but put on some delay or chorus and
play around with it:
D|--------------------|
A|--------------------|
F|----18--------------|
C|-16----17--(repeat)-|
G|--------------------|
C|--------------------|

Chorus:
("If the waves...")               ("If like you...")
D|--------------------------------------------------------------|
A|--------------------------------------------------------------|
F|-11------8------6------4---------8------6------4------6-------|
C|-9-(x8)--6-(x8)-4-(x8)-2-(x8)----6-(x8)-4-(x8)-2-(x8)-4-(x8)--|
G|-9-------6------4------2---------6------4------2------4-------|
C|-9-------6------4------2---------6------4------2------4-------|

Post Chorus:
("Would you?...")
D|----------------------|
A|----------------------|
F|-8------6-------------|
C|-6-(x8)-4-(let ring)--|
G|-6------4-------------|
C|-6------4-------------|

2nd VERSE: Same as above
2nd CHORUS: Same as above

2nd Post Chorus:
("Would you?...")
D|------------------------------|
A|------------------------------|
F|-8------6------4------6-------|
C|-6-(x8)-4-(x8)-2-(x8)-4-(x8)--|
G|-6------4------2------4-------|
C|-6------4------2------4-------|

Bridge:
D|------------------------------------------------------|
A|------------------------------------------------------|
F|----------------------11------------------------------|
C|-9-9-9-9-7-10---------x--(strum wildly until chorus)--|
G|-9-9-9-9-7-10-(x3)----9-------------------------------|
C|-9-9-9-9-7-10-----------------------------------------|

3rd CHORUS: Start at ("If like you...)
3rd POST CHORUS: Same as second, play twice

OUTRO: Same as intro

That's my interpretation of this absolutely awesome song. Have 
fun, and buy Saturday Night Wrist if you haven't already!!!

| /  slide up
| \  slide down
| h  hammer-on
| p  pull-off
| ~  vibrato
| +  harmonic
| x  Mute note
=========================================================================

            
            
Suggest correction
Creating personal tab
Creating personal tab
You can edit any tab online and save it as your Personal.

You can edit, replace or remove any tab part or add personal notes – all changes will be seen only by you.

Personal tabs can be accessed anytime from any device, even offline.
Learn more »
Give kudos to tab author, rate the tab!
1 2 3 4 5
comments
print report bad tab
4 comments total. Showing first comments.
0 reply
somewhatdamaged 266 Nov 08, 2006 07:08 PM

the bridge part is horribly wrong. it should be something like this..
Bridge:
D|------------------------------------------------------|
A|------------------------------------------------------|
F|------------------0---0--0--0--0--0-------------------|
C|-4-4-4-4-2-5------11--11-11-11-11-11------------------|
G|-4-4-4-4-2-5------10--10-10-10-10-10------------------|
C|-4-4-4-4-2-5------------------------------------------|
not sure about the last chord there. those are 10's and 11's and opens

0 reply
somewhatdamaged 266 Nov 08, 2006 07:15 PM

Bridge:
D|------------------------------------------------------|
A|----------------2-2-2-2-2-2---------------------------|
F|----------------0-0-0-0-0-0---------------------------|
C|-4-4-4-4-2-5----0-0-0-0-0-0---------------------------|
G|-4-4-4-4-2-5------------------------------------------|
C|-4-4-4-4-2-5------------------------------------------|
maybe that instead?

0 reply
BeQuietAndDrive 141 Nov 12, 2006 03:13 PM

wrong

guest
Wanna post a correction for this tab? Suggest correction