Oops, an error
Loading. Please wait.

Deathblow tab

version 2
version 2

Whole song

Interactive

3,583 views 1 this week
1 commentread comment
1 2 3 4 5
1 last vote to show rating
add to favorites
×
Save as Personal and add changes to this tab that will be seen only by you. Learn more ›
×
You can save this tab as Personal to edit and correct it or add notes. All changes will be seen only by you. Learn more »
launch autoscroll
font size
0
reset
how to read this tab
guitar tuner
edit
Autoscroll
slow
fast
+/-
esc
set tempo
stop
Author
-------------------------------------------------------------------------------
                             Deathblow - Deftones
-------------------------------------------------------------------------------

Tabbed by: Cross
7/16/03
Email:xcrossx1@yahoo.com
I finally decided to release my tabs to the public (check the bottom for the 
reason why I didn't in the first place).

Tuning: Here is Stephen's REAL tuning G#,C#,F#,B,E,G#,C#. Thats 4 steps down
from regular tuning and 2 steps down for 7 string. I play these on a regular
Guitar so I don't have the extra C# but it still sounds 99-100% correct.


Intro

C#|--------------------------------------------------------------------------|
G#|--------------------------------------------------------------------------|
E |--------------------------------------------0-----------------------------|
B |-0-----0--0----0----------------------------------------------------------|
F#|----2--------2----2p0-------0-----------0---------------------------------|x2
C#|----------------------2-2-2---2-2-2-2-2---2-------------------------------|
G#|--------------------------------------------------------------------------|

Verse
*
C#|--------------------------------------------------------------------------|
G#|--------------------------------------------------------------------------|
E |--------------------------------------------0-----------------------------|
B |-0-----0--0----0----------------------------------------------------------|
F#|----2--------2----2p0-------0-----------0---------------------------------|
C#|----------------------2-2-2---2-2-2-2-2---2-------------------------------|
G#|--------------------------------------------------------------------------|

**
 P.M        ............................................               
C#|--------------------------------------------------------------------------|
G#|--------------------------------------------------------------------------|
E |--------------------------------------------------------------------------|
B |-0-----0--0----0----------------------------------------------------------|
F#|----2--------2----2p0-----------------------------------------------------|
C#|----------------------2-2-2-2-2-2-2-2-2-2-2-2-2-2-2-2---------------------|
G#|--------------------------------------------------------------------------|

Pre-Chorus

   Fuck with this part I am too lazy to tab every damn stroke.
C#|--------------------------------------------------------------------------|
G#|---------0----------------------------------------------------------------|
E |----------0---------------------------------------------------------------|
B |-9--9-9-9-----------------------------------------------------------------|
F#|--------------------------------------------------------------------------|
C#|-7--7-7-7-----------------------------------------------------------------|
G#|--------------------------------------------------------------------------|
Chorus
*
C#|-0-0-0-0-0-0-0-0-0-0-0-0-0-0-0-0-0-0-0-0-0-0-0-0-0-0-0-0-0-0-0-0-0-0------|
G#|-0-0-0-0-0-0-0-0-0-0-0-0-0-0-0-0-0-0-0-0-0-0-0-0-0-0-0-0-0-0-0-0-0-0------|
E |--------------------------------------------------------------------------|
B |-2-2-2-2-2-2-2-2-2-2-2-2-2-2-2-2-2-2-2-2-2-2-2-2-2-2-2-2-2-2-2-2-2-2---0--|
F#|-2-2-2-2-2-2-2-2-2-2-2-2-2-2-2-2-2-2-2-2-2-2-2-2-2-2-2-2-2-2-2-2-2-2---2--|
C#|-0-0-0-0-0-0-0-0-0-0-0-0-0-0-0-0-0-0-0-0-0-0-0-0-0-0-0-0-0-0-0-0-0-0---2--|
G#|-----------------------------------------------------------------------0--|

**
C#|-0-0-0-0-0-0-0-0-0-0-0-0-0-0-0-0-0-0-0-0-0-0-0-0-0-0-0-0-0-0-0-0-0-0------|
G#|-0-0-0-0-0-0-0-0-0-0-0-0-0-0-0-0-0-0-0-0-0-0-0-0-0-0-0-0-0-0-0-0-0-0------|
E |---------4p2-2-2-4-2------------------------------------------------------|
B |-2-2-2-2-2-2-2-2-2-2-2-2-2-2-2-2-2-2-2-2-2-2-2-2-2-2-2-2-2-2-2-2-2-2------|
F#|-2-2-2-2-2-2-2-2-2-2-2-2-2-2-2-2-2-2-2-2-2-2-2-2-2-2-2-2-2-2-2-2-2-2------|
C#|-0-0-0-0-0-0-0-0-0-0-0-0-0-0-0-0-0-0-0-0-0-0-0-0-0-0-0-0-0-0-0-0-0-0------|
G#|--------------------------------------------------------------------------|

***
C#|--------------------------------------------------------------------------|
G#|--------------------------------------------------------------------------|
E |--------------------------------------------------------------------------|
B |-5-5-5-5-5-5-5-5-5-5-5-5-5-5-5-5-2-2-2-2-2-2-2-2-2-2-2-2-2-2-2-2---0------|
F#|-5-5-5-5-5-5-5-5-5-5-5-5-5-5-5-5-2-2-2-2-2-2-2-2-2-2-2-2-2-2-2-2---2------|
C#|-3-3-3-3-3-3-3-3-3-3-3-3-3-3-3-3-0-0-0-0-0-0-0-0-0-0-0-0-0-0-0-0---2------|
G#|-------------------------------------------------------------------0------|


Chorus 2 

C#|---------0----------------------0--------------------------0--------------|
G#|---------0----------------------0--------------------------0--------------|
E |--------------------------------------------------------------------------|
B |-9-9-9-9-9-9-9-9-9/11-11-11-11-11-11-11-11-11/12-12-12-12-12-12-12-12-12/-|
F#|--------------------------------------------------------------------------|
C#|-7-7-7-7-7-7-7-7-7/-9--9--9--9--9--9--9--9--9/10-10-10-10-10-10-10-10-10/-|
G#|--------------------------------------------------------------------------|
                            During this part use some open C#'s and G#'s
                             |
C#|--------------------------------------------------------------------------|
G#|--------------------------------------------------------------------------|
E |--------------------------------------------------------------------------|
B |-14-14-14-14/16-16-16-16/17-17-17-17-17-17-17-17-17-17-17-17-17-17-17-17--|
F#|--------------------------------------------------------------------------|
C#|-12-12-12-12/14-14-14-14/15-15-15-15-15-15-15-15-15-15-15-15-15-15-15-15--|
G#|--------------------------------------------------------------------------|

C#|--------------------------------------------------------------------------|
G#|--------------------------------------------------------------------------|
E |--------------------------------------------------------------------------|
B |-14-14-14-14-14-14-14-14-14-14-14-14-14-14-14-14--------------------------|
F#|--------------------------------------------------------------------------|
C#|-12-12-12-12-12-12-12-12-12-12-12-12-12-12-12-12--------------------------|
G#|--------------------------------------------------------------------------|

Outro: Just play the intro and hit open strings and improvise it till the end.

Song Structure:
Intro
Verse x4
Pre-Chorus x1
Chorus * x1
Chorus ** x1
Verse * x2
Verse */** x1 (its kind of a mix of both)
Verse * x1
Verse */** x2 (its kind of a mix of both)
Pre-Chorus x1
Chorus * x1
Chorus ** x1 (with the ending of Chorus *)
Pre-Chorus x1 
Chorus *** x1
Chorus 2 x1
Verse */** x4 (its kind of a mix of both)
Pre-Chorus x1
Chorus * x1
Chorus ** x1 (with the ending of Chorus *)
Pre-Chorus x1 
Chorus *** x1
Chorus 2 x2
Outro


P.S. I would like to send out a BIG Fuck You to all you faggots that stole 
credit for my old tabs. 
Fuck You: 
Cenif (this guy deserves a MEGA FUCK YOU) cenif@hotmail.com 
Miguel Garzón knick_knack_666@hotmail.com
SAM ROWLANDS dead_evil4@hotmail.com  You NUTT BITING FAGGOTS
There were more but I guess reporting they're asses got them taken off before
I could get there info, Thieving biatchez.

| /  slide up
| \  slide down
| h  hammer-on
| p  pull-off
| ~  vibrato
| +  harmonic
| x  Mute note

===============================================================================
Suggest correction
Creating personal tab
Creating personal tab
You can edit any tab online and save it as your Personal.

You can edit, replace or remove any tab part or add personal notes – all changes will be seen only by you.

Personal tabs can be accessed anytime from any device, even offline.
Learn more »
Give kudos to tab author, rate the tab!
1 2 3 4 5
comments
print report bad tab
1 comment total.
0 reply
xcrossx1 510 Apr 17, 2005 08:00 PM

I just got an email informing my that my tab looked a little funny...reason being? I have a little typo haha. On the end part of the intro I typed the numbers backwards instead of 0 on C# it is a 2 and instead of 2 on F# it should be 0. I hope you guys can understand this, if not...oh well haha.

guest
You may want to rate the tab now too:
select rating
Wanna post a correction for this tab? Suggest correction