Oops, an error
Loading. Please wait.

Diamond Eyes tab

version 1
version 1

Whole song

Interactive

75,710 views 120 this week
9 commentsread comments
1 2 3 4 5
x 14
add to favorites
×
Save as Personal and add changes to this tab that will be seen only by you. Learn more ›
×
You can save this tab as Personal to edit and correct it or add notes. All changes will be seen only by you. Learn more »
launch autoscroll
font size
0
reset
how to read this tab
guitar tuner
edit
Autoscroll
slow
fast
+/-
esc
set tempo
stop
Author
Difficulty
Update :D
I updated the tab ALOT everything should sound dead on now please rate and comment 
the tab 08/28/2010

im only laying out the basic song riffs
tunning Standard B Seven-string Tune Everything to
F#,B,E,A,D,F#,B or use An 8 String Guitar
Or tune up 1 step :D


[Intro and Verse Riff]

B |---------------------------------|
F#|---------------------------------|
D |---------------------------------|
A |---------------------------------|
E |---------------------------------|
B |---------------------------------|
F#|4^-4-4--4^-4-4--4^-4-4-4^-4^-4^--|(x4)
      ..     ..     ..            

[Chorus]

B |-----------------------------------------|
F#|-----------------------------------------|
D |-----------------------------------------|
A |-----------------------------------------|
E |-6-6-6--6-6-6--4-4-4-4-------------------|
B |-6-6-6--6-6-6--4-4-4-4-------------------|
F#|-4-4-4--4-4-4--2-2-2-2p1-1p0-------------|(x3)

B |------------------------------------|
F#|------------------------------------|
D |------------------------------------|
A |------------------------------------|
E |-6-6-6--6-6-6--4-4-4----------------|
B |-6-6-6--6-6-6--4-4-4----------------|
F#|-4-4-4--4-4-4--2-2-2----------------|


[Verse]

B |---------------------------------|
F#|---------------------------------|
D |---------------------------------|
A |---------------------------------|
E |---------------------------------|
B |---------------------------------|
F#|4^-4-4--4^-4-4--4^-4-4-4^-4^-4^--|(x4)
      . .     . .     . .            


[Chorus]

B |-----------------------------------------|
F#|-----------------------------------------|
D |-----------------------------------------|
A |-----------------------------------------|
E |-6-6-6--6-6-6--4-4-4-4-------------------|
B |-6-6-6--6-6-6--4-4-4-4-------------------|
F#|-4-4-4--4-4-4--2-2-2-2p1-1p0-------------|(x7)

B |------------------------------------|
F#|------------------------------------|
D |------------------------------------|
A |------------------------------------|
E |-6-6-6--6-6-6--4-4-4----------------|
B |-6-6-6--6-6-6--4-4-4----------------|
F#|-4-4-4--4-4-4--2-2-2----------------|


[Breakdown and Ending Riff]

B |-----------------------------------------|
F#|-----------------------------------------|
D |-----------------------------------------|
A |------------------------------------9\8--|
E |------------------------------------x-x--|
B |------------------------------------7\6--|
F#|2p1-1p0--2p1-1p0--2p1-1p0--2p1-1p0-------|(x2)


[Interlude]

B |----------------------------------|
F#|----------------------------------|
D |----------------------------------|
A |----------------------------------|
E |----------------------------------|
B |----------------------------------|
F#|4^-4-4--4^-4-4--4^-4-4--4^-4-4----|(x2)
      . .     . .     . .     . .

B |------------------------------|
F#|------------------------------|
D |------------------------------|
A |------------------------------|
E |------------------------------|
B |------------------------------|
F#|4^-4^-4^----------------------|

B |---------------------------------|
F#|---------------------------------|
D |---------------------------------|
A |---------------------------------|
E |---------------------------------|
B |---------------------------------|
F#|4^-4-4--4^-4-4--4^-4-4--4^44-----|(x2)
      . .     . .     . .    ..

B |------------------------------|
F#|------------------------------|
D |------------------------------|
A |------------------------------|
E |------------------------------|
B |------------------------------|
F#|4^-4^-4^----------------------|


[Chorus]

B |-----------------------------------------|
F#|-----------------------------------------|
D |-----------------------------------------|
A |-----------------------------------------|
E |-6-6-6--6-6-6--4-4-4-4-------------------|
B |-6-6-6--6-6-6--4-4-4-4-------------------|
F#|-4-4-4--4-4-4--2-2-2-2p1-1p0-------------|(x8)


[Breakdown and Ending Riff]

B |-----------------------------------------|
F#|-----------------------------------------|
D |-----------------------------------------|
A |------------------------------------9\8--|
E |------------------------------------x-x--|
B |------------------------------------7\6--|
F#|2p1-1p0--2p1-1p0--2p1-1p0--2p1-1p0-------|(x4)

Just figure Out Where Everything Goes And You Can Play
Diamond Eyes By Deftones. And Buy The Album Please :D.



************************************

| x  Dead note
| p  Pull-off
| \  Slide down

************************************
Suggest correction
Creating personal tab
Creating personal tab
You can edit any tab online and save it as your Personal.

You can edit, replace or remove any tab part or add personal notes – all changes will be seen only by you.

Personal tabs can be accessed anytime from any device, even offline.
Learn more »
comments
print report bad tab
9 comments total. Showing first comments.
0 reply
nirvana316 31 Oct 06, 2010 04:29 AM

What tuning would we need for a six string? I'm a lefty so finding a seven string for me is downright impossible.

0 reply
hydoroysha 169 Oct 29, 2010 06:25 PM

Well you can just tune up a full step on a regular six string to get the same notes an octave higher.
the tuning would be from low to high F#,B,E,A,C,F#
or you you can tune down to that same tuning to get the 8 string sound.
(i hope this made sense)

+1 reply
robnewland 140 Jan 07, 2011 08:01 AM

Tune up and then use a whammy pedal to lower it by an octave, that would work...

guest
You may want to rate the tab now too:
select rating
Wanna post a correction for this tab? Suggest correction