Oops, an error
Loading. Please wait.

Entombed Tab

version 1
version 1

Whole song

Interactive

18,918 views 45 this week
2 commentsread comments
1 2 3 4 5
excellent!
x 12
add to favorites
launch autoscroll
font size
0
reset
how to read this tab
guitar tuner
Autoscroll
slow
fast
+/-
esc
set tempo
stop
Help us to improve Ultimate-Guitar.com Take our survey!
×
-------------------------------------------------------------------------------
                                                       ENTOMBED - Deftones
-------------------------------------------------------------------------------

THIS TAB IS TO BE USED AS A GUIDELINE AND IS IN NO WAY 100% ACCURATE

Tabbed by: desertscoldmoon
Tuning: E-B-E-A-D-G-B-E

E|------------------------------------------|
B|------------------------------------------|
G|-2h3-t10p2h3-t12p2h3-t14p2h3-t17p2h3-t19p-|
D|------------------------------------------|
A|------------------------------------------| x4
E|------------------------------------------|
B|------------------------------------------|
E|------------------------------------------|


E|------------------------------------------------------------------------------------|
B|------------------------------------------------------------------------------------|
G|-2h3-t10p2h3-t12p2h3-t14p2h3-t17p2h3-t19p--2h3-t10p2h3-t12p2h3-t14p2h3-t17p2h3-t15p-|
D|------------------------------------------------------------------------------------|
A|------------------------------------------------------------------------------------| x2
E|------------------------------------------------------------------------------------|
B|------------------------------------------------------------------------------------|
E|------------------------------------------------------------------------------------|


E|------------------------------------------------------------------------------------|
B|------------------------------------------------------------------------------------|
G|-2h3-t10p2h3-t12p2h3-t14p2h3-t15p2h3-t17p--2h3-t10p2h3-t12p2h3-t14p2h3-t17p2h3-t15p-|
D|------------------------------------------------------------------------------------|
A|------------------------------------------------------------------------------------| x2
E|------------------------------------------------------------------------------------|
B|------------------------------------------------------------------------------------|
E|------------------------------------------------------------------------------------|


E|------------------------|
B|------------------------|
G|------------------------|
D|-3--3--3-5-5--8--8--8-8-|
A|-3--3--3-5-5--8--8--8-8-| x2
E|-1--1--1-3-3--6--6--6-6-|
B|--------------6--6--6-6-|
E|--------------6--6--6-6-|


E|----------------|
B|----------------|
G|--------------8-|
D|-5--5--5-8-8--8-|
A|-5--5--5-8-8--6-| x1
E|-3--3--3-6-6----|
B|----------------|
E|----------------|


E|------------------------------------------------------------------------------------|
B|------------------------------------------------------------------------------------|
G|-2h3-t10p2h3-t12p2h3-t14p2h3-t17p2h3-t19p--2h3-t10p2h3-t12p2h3-t14p2h3-t17p2h3-t15p-|
D|------------------------------------------------------------------------------------|
A|------------------------------------------------------------------------------------| x2
E|------------------------------------------------------------------------------------|
B|------------------------------------------------------------------------------------|
E|------------------------------------------------------------------------------------|


E|------------------------------------------------------------------------------------|
B|------------------------------------------------------------------------------------|
G|-2h3-t10p2h3-t12p2h3-t14p2h3-t15p2h3-t17p--2h3-t10p2h3-t12p2h3-t14p2h3-t17p2h3-t15p-|
D|------------------------------------------------------------------------------------|
A|------------------------------------------------------------------------------------| x2
E|------------------------------------------------------------------------------------|
B|------------------------------------------------------------------------------------|
E|------------------------------------------------------------------------------------|


E|------------------------|
B|------------------------|
G|------------------------|
D|-3--3--3-5-5--8--8--8-8-|
A|-3--3--3-5-5--8--8--8-8-| x2
E|-1--1--1-3-3--6--6--6-6-|
B|--------------6--6--6-6-|
E|--------------6--6--6-6-|


E|----------------------------|
B|----------------------------|
G|----------------------------|
D|-5--5--5-8-8--13--13--13-13-|
A|-5--5--5-8-8--13--13--13-13-| x1
E|-3--3--3-6-6--11--11--11-11-|
B|----------------------------|
E|----------------------------|


E|----------------|
B|----------------|
G|--------------8-|
D|-5--5--5-8-8--8-|
A|-5--5--5-8-8--6-| x1
E|-3--3--3-6-6----|
B|----------------|
E|----------------|


E|-----------------------------------------|
B|-----------------------------------------|
G|-2h3-t10p2h3-t12p2h3-t14p2h3-t17p2h3-t19-|
D|-----------------------------------------|
A|-----------------------------------------| x1
E|-----------------------------------------|
B|-----------------------------------------|
E|-----------------------------------------|


BREAK

E|------------------------------------------------------------------------------------|
B|------------------------------------------------------------------------------------|
G|-2h3-t10p2h3-t12p2h3-t14p2h3-t17p2h3-t19p--2h3-t10p2h3-t12p2h3-t14p2h3-t17p2h3-t15p-|
D|------------------------------------------------------------------------------------|
A|------------------------------------------------------------------------------------|
E|------------------------------------------------------------------------------------|
B|------------------------------------------------------------------------------------|
E|------------------------------------------------------------------------------------|
                                                                                      |
E|------------------------------------------------------------------------------------|
B|------------------------------------------------------------------------------------|
G|-2h3-t10p2h3-t12p2h3-t14p2h3-t15p2h3-t17p--2h3-t10p2h3-t12p2h3-t14p2h3-t17p2h3-t19p-|
D|------------------------------------------------------------------------------------|
A|------------------------------------------------------------------------------------|
E|------------------------------------------------------------------------------------|
B|------------------------------------------------------------------------------------|
E|------------------------------------------------------------------------------------|


E|------------------------|
B|------------------------|
G|------------------------|
D|-3--3--3-5-5--8--8--8-8-|
A|-3--3--3-5-5--8--8--8-8-| x2
E|-1--1--1-3-3--6--6--6-6-|
B|--------------6--6--6-6-|
E|--------------6--6--6-6-|


E|----------------------------|
B|----------------------------|
G|----------------------------|
D|-5--5--5-8-8--13--13--13-13-|
A|-5--5--5-8-8--13--13--13-13-| x2
E|-3--3--3-6-6--11--11--11-11-|
B|----------------------------|
E|----------------------------|


E|------------------------|
B|------------------------|
G|------------------------|
D|-3--3--3-5-5--8--8--8-8-|
A|-3--3--3-5-5--8--8--8-8-| x2
E|-1--1--1-3-3--6--6--6-6-|
B|--------------6--6--6-6-|
E|--------------6--6--6-6-|


E|----------------------------|
B|----------------------------|
G|----------------------------|
D|-5--5--5-8-8--13--13--13-13-|
A|-5--5--5-8-8--13--13--13-13-| x1
E|-3--3--3-6-6--11--11--11-11-|
B|----------------------------|
E|----------------------------|


E|-------------|
B|-------------|
G|-------------|
D|-3--3--3-5-5-|
A|-3--3--3-5-5-|
E|-1--1--1-3-3-|
B|-------------|
E|-------------|


E|--------------|
B|--------------|
G|--------------|
D|-8-8-8-8--8-8-|
A|-8-8-8-8--8-8-| x4
E|-6-6-6-6--6-6-|
B|-6-6-6-6--6-6-|
E|-6-6-6-6--6-6-|


E|---------------|
B|---------------|
G|---------------|
D|-8-8-8-8--8--8-|
A|-8-8-8-8--8--8-| x2
E|-6-6-6-6--6--6-|
B|-6-6-6-6--6--6-|
E|-6-6-6-6--6--6-|


E|--------------|
B|--------------|
G|--------------|
D|-8-8-8-8--8-8-|
A|-8-8-8-8--8-8-| x2
E|-6-6-6-6--6-6-|
B|-6-6-6-6--6-6-|
E|-6-6-6-6--6-6-|


E|------------------------------------------------------------------------------------|
B|------------------------------------------------------------------------------------|
G|-2h3-t10p2h3-t12p2h3-t14p2h3-t17p2h3-t19p--2h3-t10p2h3-t12p2h3-t14p2h3-t17p2h3-t15p-|
D|------------------------------------------------------------------------------------|
A|------------------------------------------------------------------------------------| x2
E|------------------------------------------------------------------------------------|
B|------------------------------------------------------------------------------------|
E|------------------------------------------------------------------------------------|


E|-------------------------------------------------|
B|-------------------------------------------------|
G|-2h3-t10p2h3--t12p2h3---t14p2h3---t17p2h3----t19-|
D|-------------------------------------------------|
A|-------------------------------------------------|
E|-------------------------------------------------|
B|-------------------------------------------------|
E|-------------------------------------------------|
Suggest correction
comments
print report bad tab
2 comments total.
0 reply
Schurman 100 wrote on April 27 2014, 02:34 am

Plays well on my six string. Thanks for this!

0 reply
team_sleep 33 wrote on February 8 2016, 11:05 pm

There's a Bb maj7 that the keyboards play that goes well with guitar as well.

guest
You may want to rate the tab now too:
select rating
Wanna post a correction for this tab? Suggest correction