Oops, an error
Loading. Please wait.

Feiticeira tab

version 4
version 4

Whole song

Interactive

412 views 3 this week
no commentswrite comment
1 2 3 4 5
2 more votes to show rating
add to favorites
×
Save as Personal and add changes to this tab that will be seen only by you. Learn more ›
×
You can save this tab as Personal to edit and correct it or add notes. All changes will be seen only by you. Learn more »
launch autoscroll
font size
0
reset
how to read this tab
guitar tuner
edit
Autoscroll
slow
fast
+/-
esc
set tempo
stop
-------------------------------------------------------------------------------
                             SONG NAME - Band Name
-------------------------------------------------------------------------------
Tabbed by: Emma Torres
E-mail: team_sleep@live.com

Tuning: C F C G A D

The french tab has the intro almost correct. I figured I would add my two cents.

*************All credit for Corny's contribution goes to them.*************************************

Intro
D|---------------------------------------------------------------------------|
A|---------------------------------------------------------------------------|
G|------------------------6h7-6h7--------------6h7-6h7-----------------------|
C|---------9+----------9+-4-4-0-0-----------9+-4-4-0-0---------9+----8-0-4-0-|
F|-9+9+9+9+9+9+9+9+9+9+9+-4-4-0-0-8-9+9+9+9+9+-4-4-0-0-8-9+9+9+9+9+--8-0-4-0-|
C|-9+9+9+9+9+9+9+9+9+9+9+-4-4-0-0-8-9+9+9+9+9+-4-4-0-0-8-9+9+9+9+9+--8-0-4-0-|

NOTE: The 8's before the harmonics might be slides up as well.
Do the 6h7 with your ring and pinky fingers.

Verse
D|-----------------------------------|
A|-----------------------------------|
G|-6-6-6-6-6-6-6-6-6-6-6-6-----------|
C|-6-6-6-6-6-6-6-6-6-6-6-6-8-0-4-0---|
F|-4-4-4-4-4-4-4-4-4-4-4-4-8-0-4-0---|
C|-------------------------8-0-4-0---| x4

Intro

Verse x8

Trippy Chorus
D|----------------------|    D|---------|
A|----------------------|    A|---------|
G|--10-----10b---11-----|    G|---------|
C|----------------------|    C|-8-0-4-0-|
F|--8------8b----9------|    F|-8-0-4-0-|
C|---------0?-----------|x4  C|-8-0-4-0-|x1

Verse x8

Bridge/Outro
"Soon I'll let you go..."

******(This end part was taken directly from Corny's tab. All credit goes to them*****************

D|-----------------------------------------------------------------|
A|-------------------------------------------------5+5+5+5+5+5+5+--|
G|---------------------------------5+5+5+5+5+5+5+5+5+5+5+5+5+5+5+--|
C|-5+5+5+5+5+5+5+5+5+5+5+5+5+5+5+5+5+5+5+5+5+5+5+5+----------------|
F|-5+5+5+5+5+5+5+5+5+5+5+5+5+5+5+5+--------------------------------|
C|-----------------------------------------------------------------|

D|-----------------------------------------------------------------|
A|-----------------------------------------------------------------|
G|-1010101010101010101010101010----1010101010101010101010101010----|
C|-----------------------------------------------------------------|
F|--8-8-8-8-8-8-8-8-8-8-8-8-8-8-----8-8-8-8-8-8-8-8-8-8-8-8-8-8----|
C|------------------------------0~---------------------------------| x4

D|--0-0-0-0-0-0-0-0-0-0-0-0-0-0-0---0-0-0-0-0-0-0-0-0-0-0-0-0-0-0---|    D|-----------|
A|------------------------------------------------------------------|    A|-----------|
G|-101010101010101010101010101010-\-6-6-6-6-6-6-6-6-6-6-6-6-6-6-6-/-|    G|-10~~~~~~~-|
C|------------------------------------------------------------------|    C|-----------|
F|--8-8-8-8-8-8-8-8-8-8-8-8-8-8-8-\-4-4-4-4-4-4-4-4-4-4-4-4-4-4-4-/-|    F|--8~~~~~~~-|
C|------------------------------------------------------------------| X4 C|--0~~~~~~~-|


************************************

| /   slide up
| \   slide down
| h   hammer-on
| p   pull-off
| ~   vibrato
| +   harmonic
| x   Mute note
| b   Bend
| pb  Pre-bend
| br  Bend release
| pbr Pre-bend release
| brb Bend release bend

************************************

            
            
Suggest correction
Creating personal tab
Creating personal tab
You can edit any tab online and save it as your Personal.

You can edit, replace or remove any tab part or add personal notes – all changes will be seen only by you.

Personal tabs can be accessed anytime from any device, even offline.
Learn more »
Give kudos to tab author, rate the tab!
1 2 3 4 5
comments
print report bad tab
guest
You may want to rate the tab now too:
select rating
Wanna post a correction for this tab? Suggest correction