Oops, an error
Loading. Please wait.

Geometric Headdress Bass Tab

58 views 1 this week
no commentswrite comment
1 2 3 4 5
3 more votes to show rating
add to favorites
launch autoscroll
font size
0
reset
guitar tuner
Autoscroll
slow
fast
+/-
esc
set tempo
stop
Help us to improve Ultimate-Guitar.com Take our survey!
×
Author
Difficulty
Tuning
novice
B E A D F# B
00:00
D|-----------------------------------------------------------------------------------| 3x
A|-----------------------------------------------------------------------------------|
E|-------------------------------------------------13--------------------------------|
B|-10-10-10-10-10-10-10-10-10-10-10-10-10-10-10-11-----------------------------------|

00:10
D|-----------------------------------------------------------------------------------| 1x
A|-----------------------------------------------------------------------------------|
E|-----------------------------------------------------------------------------------|
B|-10-10-10-10-10-10-10-10-10-10-----------------------------------------------------|

00:11
D|-----------------------------------------------------------------------------------| 2x
A|-----------------------------------------------------------------------------------|
E|-----------------------------------------------------------------------------------|
B|-8-8-6-9-8-8-9-9-8-8-6-9-8-8-9-9-8-8-8-8-6-6-6-6-11-11-11-11-9-9-9-9---------------|

00:33
D|-----------------------------------------------------------------------------------| 1x
A|-----------------------------------------------------------------------------------|
E|-----------------------------------------------------------------------------------|
B|-8-8-6-9-8-8-9-9-8-8-6-9-8-8-9-9-8-8-8-8-6-6-6-6-11~-------------------------------|

00:44
D|-----------------------------------------------------------------------------------| 3x
A|-----------------------------------------------------------------------------------|
E|-------------------------------------------------13--------------------------------|
B|-10-10-10-10-10-10-10-10-10-10-10-10-10-10-10-11-----------------------------------|

00:54
D|-----------------------------------------------------------------------------------| 1x
A|-----------------------------------------------------------------------------------|
E|-----------------------------------------------------------------------------------|
B|-10-10-10-10-10-10-10-10-10-10-----------------------------------------------------|

00:57
D|-----------------------------------------------------------------------------------| 1x
A|-------------10-8-10---------------------------------------------------------------|
E|---------------------10-8-10-------------------------------------------------------|
B|-11-11-11-11-----------------11-11-11-11-11-11-11\3-3-3-3-3-5-5-5-5-5-3-3-3-3-3-3--|

01:10
D|-----------------------------------------------------------------------------------| 1x
A|-------------10-8-10---------------------------------------------------------------|
E|---------------------10-8-10-------------------------------------------------------|
B|-11-11-11-11-----------------11-11-11-11-11-11-11-11-11----------------------------|

01:16
D|-----------------------------------------------------------------------------------| 3x
A|-----------------------------------------------------------------------------------|
E|-------------------------------------------------13--------------------------------|
B|-10-10-10-10-10-10-10-10-10-10-10-10-10-10-10-11-----------------------------------|

01:26
D|-----------------------------------------------------------------------------------| 1x
A|-----------------------------------------------------------------------------------|
E|-----------------------------------------------------------------------------------|
B|-10-10-10-10-10-10-10-10-10-10-----------------------------------------------------|

01:27
D|-----------------------------------------------------------------------------------| 2x
A|-----------------------------------------------------------------------------------|
E|-----------------------------------------------------------------------------------|
B|-8-8-6-9-8-8-9-9-8-8-6-9-8-8-9-9-8-8-8-8-6-6-6-6-11-11-11-11-9-9-9-9---------------|

01:49
D|-----------------------------------------------------------------------------------| 1x
A|-----------------------------------------------------------------------------------|
E|-----------------------------------------------------------------------------------|
B|-8-8-6-9-8-8-9-9-8-8-6-9-8-8-9-9-8-8-8-8-6-6-6-6-11~-------------------------------|

02:00
D|-----------------------------------------------------------------------------------| 3x
A|-----------------------------------------------------------------------------------|
E|-------------------------------------------------13--------------------------------|
B|-10-10-10-10-10-10-10-10-10-10-10-10-10-10-10-11-----------------------------------|

02:10
D|-----------------------------------------------------------------------------------| 1x
A|-----------------------------------------------------------------------------------|
E|-----------------------------------------------------------------------------------|
B|-10-10-10-10-10-10-10-10-10-10-----------------------------------------------------|

02:13
D|-----------------------------------------------------------------------------------| 3x
A|-------------10-8-10---------------------------------------------------------------|
E|---------------------10-8-10-------------------------------------------------------|
B|-11-11-11-11-----------------11-11-11-11-11-11-11\3-3-3-3-3-5-5-5-5-5-3-3-3-3-3-3--|

02:52
D|-----------------------------------------------------------------------------------| 1x
A|-------------10-8-10---------------------------------------------------------------|
E|---------------------10-8-10-------------------------------------------------------|
B|-11-11-11-11-----------------11-11-11-11-11-11-11-11-11----------------------------|

02:58
D|-----------------------------------------------------------------------------------| 4x
A|-----------------------------------------------------------------------------------|
E|-------------------------------------------------13--------------------------------|
B|-10-10-10-10-10-10-10-10-10-10-10-10-10-10-10-11-----------------------------------|

03:11
D|-----------------------------------------------------------------------------------| 3x
A|-----------------------------------------------------------------------------------|
E|----------------------------------------------13-----------------------------------|
B|-10-10-10-10-10-10-10-10-10-10-10-10-10-10-10----11--------------------------------|

03:20
D|-----------------------------------------------------------------------------------| 1x
A|-----------------------------------------------------------------------------------|
E|-----------------------------------------------------------------------------------|
B|-10-10-10-10-10-10-10-10\----------------------------------------------------------|

03:22
D|----| 1x
A|----|
E|----|
B|-8~-|
Suggest correction
Give kudos to tab author, rate the tab!
1 2 3 4 5
comments
print report bad tab
guest
You may want to rate the tab now too:
select rating
Wanna post a correction for this tab? Suggest correction