Oops, an error
Loading. Please wait.

Gore tab

version 1
version 1

Whole song

Interactive

1,492 views 15 this week
3 commentsread comments
1 2 3 4 5
x 6
add to favorites
×
Save as Personal and add changes to this tab that will be seen only by you. Learn more ›
×
You can save this tab as Personal to edit and correct it or add notes. All changes will be seen only by you. Learn more »
launch autoscroll
font size
0
reset
how to read this tab
guitar tuner
edit
Autoscroll
slow
fast
+/-
esc
set tempo
stop
Author
Difficulty
|--------------------------------------------------------------------------------------------------------|
|                                             DEFTONES - GORE                                            |
|                                            Album: GORE (2016)                                          |
|                                             Tab by Godspeedy                                           |
|--------------------------------------------------------------------------------------------------------|

                   If you have questions or corrections feel free to send me a message:
                                    https://www.facebook.com/Godspeedy14
                     
                 Also check out my Youtube channel: http://www.youtube.com/user/Godspeedy14

                        *************************************************************
                        * NOTE: If you need a playthrough, check out my cover here: *
                        *       https://www.youtube.com/watch?v=eINW8cKjnk8         *
                        *************************************************************

                                       Tuning: 8 strings F#BEADGBE 
                                                    
*********************************************GUITAR NOTATIONS*********************************************
*                                                                                                        *
*                                      | s   slide               |                                       *
*                                      | s\  slide downwards     |                                       *
*                                      | s/  slide upwards       |                                       *
*                                      | /s  slide in from below |                                       *
*                                      | ~   vibrato             |                                       *
*                                      | b   bend                |                                       *
*                                      | r   release             |                                       *
*                                      | br  bend release        |                                       *
*                                                                                                        *
**********************************************************************************************************

|--------------------------------------------------------------------------------------------------------|
|                                          VERSE (00:00-00:40)                                           |
|--------------------------------------------------------------------------------------------------------|

Guitar 1 (w/ dist)

E|--------|--------|--------|--------|-------------|--------|--------|--------|
B|--------|--------|--------|--------|-------------|--------|--------|--------|
G|--------|--------|--------|--------|-------------|--------|--------|--------|
D|-/s11~~~|~~~~~~~~|~~~~~~~~|~~~~~~~~|~/s13~~~\s9~~|~~~~~~~~|~~~~~~~~|~~~~~~~~|
A|--------|--------|--------|--------|-------------|--------|--------|--------|
E|--------|--------|--------|--------|-------------|--------|--------|--------|
B|--------|--------|--------|--------|-------------|--------|--------|--------|
E|--------|--------|--------|--------|-------------|--------|--------|--------|

E|--------|--------|--------|--------|-------------|--------|-------------|----------|
B|--------|--------|--------|--------|-------------|--------|-------------|----------|
G|--------|--------|--------|--------|-------------|--------|-------------|----------|
D|-/s11~~~|~~~~~~~~|~~~~~~~~|~~~~~~~~|~/s13~~~\s9~~|~~~~~~~~|~~~~~8b-r--b-|-r--b--r--|
A|--------|--------|--------|--------|-------------|--------|-------------|----------|
E|--------|--------|--------|--------|-------------|--------|-------------|----------|
B|--------|--------|--------|--------|-------------|--------|-------------|----------|
E|--------|--------|--------|--------|-------------|--------|-------------|----------|
                                     
|--------------------------------------------------------------------------------------------------------|
|                                          CHORUS (00:40-00:53)                                          |
|--------------------------------------------------------------------------------------------------------|

Guitars 1 and 2 (w/ dist)

E|------------------|-------------------|
B|------------------|-------------------|
G|------------------|-------------------|
D|------------------|-------------------| x4
A|------------------|-------------------|
E|------------------|-------------------|
B|------------------|-------------------|
E|-4---2---4---2----|-/s4---2---1----1--|

|--------------------------------------------------------------------------------------------------------|
|                                         VERSE 2 (00:53-01:20)                                          |
|--------------------------------------------------------------------------------------------------------|
                                              same as VERSE
|--------------------------------------------------------------------------------------------------------|
|                                         CHORUS 2 (01:20-01:47)                                         |
|--------------------------------------------------------------------------------------------------------|

Guitars 1 and 2 (w/ dist)

E|------------------|-------------------|
B|------------------|-------------------|
G|------------------|-------------------|
D|------------------|-------------------| x4
A|------------------|-------------------|
E|------------------|-------------------|
B|------------------|-------------------|
E|-4---2---4---2----|-/s4---2---1----1--|

E|-------------------------|------------------|
B|-------------------------|------------------|
G|-------------------------|------------------|
D|-------------------------|--------------6---| x4
A|-------------------------|------------------|
E|-------------------------|------------------|
B|-------------------------|------------------|
E|-6---6---6--6-6---6--6-6-|-6---6---6--------|

|--------------------------------------------------------------------------------------------------------|
|                                         VERSE 3 (01:47-02:15)                                          |
|--------------------------------------------------------------------------------------------------------|
                                              same as VERSE
|--------------------------------------------------------------------------------------------------------|
|                                         CHORUS 3 (02:15-03:34)                                         |
|--------------------------------------------------------------------------------------------------------|

Guitars 1 and 2 (w/ dist)

E|------------------|-------------------|
B|------------------|-------------------|
G|------------------|-------------------|
D|------------------|-------------------| x8
A|------------------|-------------------|
E|------------------|-------------------|
B|------------------|-------------------|
E|-4---2---4---2----|-/s4---2---1----1--|

E|-------------------------|------------------|
B|-------------------------|------------------|
G|-------------------------|------------------|
D|-------------------------|--------------6---| x7
A|-------------------------|------------------|
E|-------------------------|------------------|
B|-------------------------|------------------|
E|-6---6---6--6-6---6--6-6-|-6---6---6--------|

E|-------------------------|----------------|
B|-------------------------|----------------|
G|-------------------------|----------------|
D|-------------------------|----------------|
A|-------------------------|----------------|
E|-------------------------|----------------|
B|-------------------------|----------------|
E|-6---6---6--6-6---6--6-6-|-4---3---2--1---|

E|------------------|-------------------|
B|------------------|-------------------|
G|------------------|-------------------|
D|------------------|-------------------| x7
A|------------------|-------------------|
E|------------------|-------------------|
B|------------------|-------------------|
E|-4---2---4---2----|-/s4---2---1----1--|

E|------------------|------------------|
B|------------------|------------------|
G|------------------|------------------|
D|------------------|------------------|
A|------------------|------------------|
E|------------------|------------------|
B|------------------|------------------|
E|-4---2---4---2----|-4---3---2--1--1--|

|--------------------------------------------------------------------------------------------------------|
|                                          OUTRO (03:34-04:59)                                           |
|--------------------------------------------------------------------------------------------------------|

Guitars 1 and 2 (w/ dist) - slowing down with each bar

E|------------------|
B|------------------|
G|------------------|
D|------------------| x6
A|------------------|
E|------------------|
B|------------------|
E|-4---3---2--1--1--|



Suggest correction
Creating personal tab
Creating personal tab
You can edit any tab online and save it as your Personal.

You can edit, replace or remove any tab part or add personal notes – all changes will be seen only by you.

Personal tabs can be accessed anytime from any device, even offline.
Learn more »
comments
print report bad tab
3 comments total.
0 reply
c_t_s92 10 Apr 27, 2016 09:36 AM

6 string tab possible?

0 reply
nik.stalker99 10 May 31, 2016 04:14 AM

just tune down your guitar octave down and get a E-B-E-A-D-G

guest
You may want to rate the tab now too:
select rating
Wanna post a correction for this tab? Suggest correction