Oops, an error
Loading. Please wait.

Hearts Wires tab

version 1
version 1

Whole song

Interactive

5,524 views 27 this week
7 commentsread comments
1 2 3 4 5
x 4
add to favorites
×
Save as Personal and add changes to this tab that will be seen only by you. Learn more ›
×
You can save this tab as Personal to edit and correct it or add notes. All changes will be seen only by you. Learn more »
launch autoscroll
font size
0
reset
how to read this tab
guitar tuner
edit
Autoscroll
slow
fast
+/-
esc
set tempo
stop
TUNING: Drop C (with a low A#)

A# G C F A D


[Intro] 

(1:16)

(Clean (Reverb/Delay))
D |---------------------|
A |---------8-----------|
F |----8------8----8----|
C |-10---10-----10---10-|
G |---------------------|     x8
A#|---------------------|


[Verse 1]

(1:31)

(Chino uses a Memory Toy analog delay pedal for this part, slight delay and mod on for that odd bend effect)
D |----------------------------------------------------------------------------------|
A |-8-----6-----4-----8-----6-----4---------8-----6-----4--9-8-6h8-8-----6-----4-----|
F |---8-7-------5-------8-7-------5----7b-----8-7-------5------------8-7-------5-----|
C |----------------------------------------------------------------------------------|
G |----------------------------------------------------------------------------------|
A#|----------------------------------------------------------------------------------|

D |----------------------|
A |-4p3-----6-----8------|
F |-5-------7------------|
C |------------------10--|
G |----------------------|
A#|----------------------|

D |-----------------------------------------------------------------------------------|
A |-8-----6-----4--9-8-6h8-8-----6-----4---------8-----6-----4----9-8-6h8-8-----6-----|
F |---8-7-------5------------8-7-------5----7b-----8-7-------5--------------8-7-------|
C |-----------------------------------------------------------------------------------|
G |-----------------------------------------------------------------------------------|
A#|-----------------------------------------------------------------------------------|

[Chorus]

(2:38)

D |-----------------------------------------------------------------------------------|
A |-----------------------------------------------------------------------------------|
F |--------------------------------------------------------------------3--3--3-3------|
C |--------5--5--5-5-----------5--5--5-5-----------5--5--5-5-----------3--3--3-3------|
G |--------3--3--3-3-----------3--3--3-3-----------3--3--3-3-----------1--1--1-1------|
A#|-5-7-8--0--0--0-0--5-7-8-7--0--0--0-0--5-7-8----0--0--0-0--5-7-8---------------7---|

(2:54)

D |--------------|
A |-6-----8------|
F |-7------------|
C |----------10--|
G |--------------|
A#|--------------|

[Verse 2]

(3:02)

D |-----------------------------------------------------------------------------------|
A |-8-----6-----4--9-8-6h8-8-----6-----4---------8-----6-----4----9-8-6h8-8-----6-----|
F |---8-7-------5------------8-7-------5----7b-----8-7-------5--------------8-7-------|
C |-----------------------------------------------------------------------------------|
G |-----------------------------------------------------------------------------------|
A#|-----------------------------------------------------------------------------------|

[Chorus]

(3:27)

D |-----------------------------------------------------------------------------------|
A |-----------------------------------------------------------------------------------|
F |--------------------------------------------------------------------3--3--3-3------|
C |--------5--5--5-5-----------5--5--5-5-----------5--5--5-5-----------3--3--3-3------|
G |--------3--3--3-3-----------3--3--3-3-----------3--3--3-3-----------1--1--1-1------|
A#|-5-7-8--0--0--0-0--5-7-8-7--0--0--0-0--5-7-8----0--0--0-0--5-7-8---------------7---|

D |----------------------------------------------------------------------------|
A |----------------------------------------------------------------------------|
F |-------------------------------------------------------------3--3--3-3------|
C |-5--5--5-5-----------5--5--5-5-----------5--5--5-5-----------3--3--3-3------|
G |-3--3--3-3-----------3--3--3-3-----------3--3--3-3-----------1--1--1-1------|
A#|-0--0--0-0--5-7-8-7--0--0--0-0--5-7-8-7--0--0--0-0--5-7-8---------------7---|

[Bridge]

(3:58)

D |-----------------------|
A |-----------------------|
F |-----------------------|
C |-5--5--5--8--8--8-7--3-|
G |-3--3--3--6--6--6-5--1-|      x4
A#|-0--0--0---------------|

(4:13)

D |------------------------------------------------------------------------|
A |------------------------------------------------------------------------|
F |-5555555555555555-8888888888888101010-5555555555555555-3333333333333333-|
C |-5555555555555555-8888888888888101010-5555555555555555-3333333333333333-|
G |-3333333333333333-66666666666668-8-8--3333333333333333-1111111111111111-|       x2
A#|------------------------------------------------------------------------|

(4:42)

D |-----------------------|
A |-----------------------|
F |-----------------------|
C |-5--5--5--8--8--8-7--3-|
G |-3--3--3--6--6--6-5--1-|      x6
A#|-0--0--0---------------|

(5:05)

D |-----------------------|
A |-----------------------|
F |-3--3--3-3-------------|
C |-3--3--3-3---5---------|
G |-1--1--1-1---3---------|      
A#|-------------0---------|

***********************************
| h   Hummer-on
| p   Pull-off
| b   Bend
***********************************
Suggest correction
Creating personal tab
Creating personal tab
You can edit any tab online and save it as your Personal.

You can edit, replace or remove any tab part or add personal notes – all changes will be seen only by you.

Personal tabs can be accessed anytime from any device, even offline.
Learn more »
comments
print report bad tab
7 comments total. Showing first comments.
0 reply
che_stronzo 10 Apr 07, 2016 02:15 PM

Wrong tuning. The tuning is Drop C with a low A#. Tab incomplete

0 reply
blahfacemcgee 10 Apr 22, 2016 07:40 AM

The main verse riff is played around the twelfth fret and for the chorus chino just uses the bass string (a#). They chorus is also a little wrong. It should be open a#, d# (5th fret), f# (8th fret). Sorry I can't be bothered tabbing it. Watch live versions though and you'll see what I mean.

0 reply
info.nowaczek 10 Sep 01, 2016 11:54 AM

Thank you man, nice tab.

guest
You may want to rate the tab now too:
select rating
Wanna post a correction for this tab? Suggest correction