Oops, an error
Loading. Please wait.

Hearts Wires tab

version 2
version 2

Whole song

Interactive

2,635 views 15 this week
no commentswrite comment
1 2 3 4 5
x 5
add to favorites
×
Save as Personal and add changes to this tab that will be seen only by you. Learn more ›
×
You can save this tab as Personal to edit and correct it or add notes. All changes will be seen only by you. Learn more »
launch autoscroll
font size
0
reset
how to read this tab
guitar tuner
edit
Autoscroll
slow
fast
+/-
esc
set tempo
stop
Author
Difficulty
|--------------------------------------------------------------------------------------------------------|
|                                         DEFTONES - HEARTS/WIRES                                        |
|                                           Album: GORE (2016)                                           |
|                                            Tab by Godspeedy                                            |
|--------------------------------------------------------------------------------------------------------|

                   If you have questions or corrections feel free to send me a message:
                                    https://www.facebook.com/Godspeedy14
                     
                 Also check out my Youtube channel: http://www.youtube.com/user/Godspeedy14

                        *************************************************************
                        * NOTE: If you need a playthrough, check out my cover here: *
                        *       https://www.youtube.com/watch?v=YVxMbLP5hYw         *
                        *************************************************************

                                       Tuning: 8 strings F#BEADGBE 
                                                    
*********************************************GUITAR NOTATIONS*********************************************
*                                                                                                        *
*                                      | *   palm mute           |                                       *
*                                      | s   slide               |                                       *
*                                      | /s  slide in from below |                                       *
*                                      | h   hammer-on           |                                       *
*                                      | x   muted note          |                                       *
*                                      | b   bend                |                                       *
*                                      | r   release             |                                       *
*                                      | ..  let ring            |                                       *
*                                                                                                        *
**********************************************************************************************************

~~intro skipped

|--------------------------------------------------------------------------------------------------------|
|                                          INTRO (01:16-01:31)                                           |
|--------------------------------------------------------------------------------------------------------|

Guitar 1 (w/ clean and delay)

 E|--------------------------------|
 B|--------------------------------|
 G|-------------10-----------------|
 D|-----11----------11------11-----| x8
 A|-13------13----------13------13-|
 E|--------------------------------|
 B|--------------------------------|
F#|--------------------------------|

|--------------------------------------------------------------------------------------------------------|
|                                          VERSE (01:31-02:38)                                           |
|--------------------------------------------------------------------------------------------------------|

I. Guitar 1 (w/ clean and delay)
                .......... .........              .......... .....
 E|---------------|-----|-----|-----|---------------|-----|-----|-----------------|
 B|---------------|-----|-----|-----|---------------|-----|-----|-----------------|
 G|-10----------8-|-----|-----|-----|-10----------8-|-----|-----|-----------------|
 D|-----11--10----|-----|-11--|-----|-----11--10----|-----|-11--|-10b-r-b-t-b-r-b-|
 A|---------------|-----|-x---|-----|---------------|-----|-x---|-----------------|
 E|---------------|-----|-9---|-----|---------------|-----|-9---|-----------------|
 B|---------------|-----|-----|-----|---------------|-----|-----|-----------------|
F#|---------------|-----|-----|-----|---------------|-----|-----|-----------------|
                .......... .....                                         .......... ...........
 E|---------------|-----|-----|----------------------------|---------------|-----|-----|--------------|
 B|---------------|-----|-----|----------------------------|---------------|-----|-----|--------------|
 G|-10----------8-|-----|-----|-11---11--10--11--10--8-h10-|-10----------8-|-----|-----|--------------|
 D|-----11--10----|-----|-11--|----------------------------|-----11--10----|-----|-11--|------/s11s10-|
 A|---------------|-----|-x---|----------------------------|---------------|-----|-x---|--------------|
 E|---------------|-----|-9---|----------------------------|---------------|-----|-9---|--------------|
 B|---------------|-----|-----|----------------------------|---------------|-----|-----|--------------|
F#|---------------|-----|-----|----------------------------|---------------|-----|-----|--------------|
                          ............ ...... .........
 E|---------------|-----|-----|-----|------------|-----|
 B|---------------|-----|-----|-----|------------|-----|
 G|---------------|-----|-8---|-----|-10---------|-----|
 D|-s11s10--------|-----|-x---|-----|-x------8---|-----|
 A|---------------|-----|-6---|-----|-8----------|-----|
 E|---------------|-----|-----|-----|------------|-----|
 B|---------------|-----|-----|-----|------------|-----|
F#|---------------|-----|-----|-----|------------|-----|

  Guitar 2 (w/ slight overdrive)
                                                                                        *slowly bend 
 E|------------------------|------------------------|------------------------|------------------------|
 B|------------------------|------------------------|------------------------|------------------------|
 G|------------------------|------------------------|------------------------|------------------------|
 D|------------------------|------------------------|------------------------|------------------------| x3
 A|-6--6--6--6--6--6--6b-6-|-6--6--6--6--6--6--4--4-|-6--6--6--6--6--6--6b-6-|-6--6--6--6b-6b-6b-6b-6b|
 E|------------------------|------------------------|------------------------|------------------------|
 B|------------------------|------------------------|------------------------|------------------------|
F#|------------------------|------------------------|------------------------|------------------------|
    *  *  *  *  *  *  *  *   *  *  *  *  *  *  *  *   *  *  *  *  *  *  *  *   *  *  *  *  *  *  *  * 
 E|------------------------|------------------------|
 B|------------------------|------------------------|
 G|------------------------|------------------------|
 D|------------------------|------------------------|
 A|-6--6--6--6--6--6--6b-6-|-6--6--6--6--5--5--4--4-|
 E|------------------------|------------------------|
 B|------------------------|------------------------|
F#|------------------------|------------------------|
    *  *  *  *  *  *  *  *   *  *  *  *  *  *  *  *
          .............
 E|------------|-------|
 B|------------|-------|
 G|------------|-------|
 D|------------|-------| x4
 A|------------|-------|
 E|-4--5--6----|-------|
 B|------------|-------|
F#|------------|-------|

II. Guitar 1 (w/ clean and delay)

                .......... .....                                         .......... .....
 E|---------------|-----|-----|----------------------------|---------------|-----|-----|-----------------|
 B|---------------|-----|-----|----------------------------|---------------|-----|-----|-----------------|
 G|-10----------8-|-----|-----|-11---11--10--11--10--8-h10-|-10----------8-|-----|-----|-----------------|
 D|-----11--10----|-----|-11--|----------------------------|-----11--10----|-----|-11--|-10b-r-b-t-b-r-b-|
 A|---------------|-----|-x---|----------------------------|---------------|-----|-x---|-----------------|
 E|---------------|-----|-9---|----------------------------|---------------|-----|-9---|-----------------|
 B|---------------|-----|-----|----------------------------|---------------|-----|-----|-----------------|
F#|---------------|-----|-----|----------------------------|---------------|-----|-----|-----------------|
                .......... .....                                         ........
 E|---------------|-----|-----|----------------------------|---------------|-----|
 B|---------------|-----|-----|----------------------------|---------------|-----|
 G|-10----------8-|-----|-----|-11---11--10--11--10--8-h10-|-10----------8-|-----|
 D|-----11--10----|-----|-11--|----------------------------|-----11--10----|-----|
 A|---------------|-----|-x---|----------------------------|---------------|-----|
 E|---------------|-----|-9---|----------------------------|---------------|-----|
 B|---------------|-----|-----|----------------------------|---------------|-----|
F#|---------------|-----|-----|----------------------------|---------------|-----|

    Guitar 2 (w/ slight overdrive)

 E|------------------------|------------------------|-------------------------|------------------------|
 B|------------------------|------------------------|-------------------------|------------------------|
 G|------------------------|------------------------|-------------------------|------------------------|
 D|------------------------|------------------------|-----8--------------8----|----8--------------8----| x3
 A|----------4--4--4--6--6-|----------4--4--6--6--4-|/s8-----8--6--6--8-----8-|-8-----8--6--6--8-----8-|
 E|-6--6--6----------------|-6--6--6----------------|-------------------------|------------------------|
 B|------------------------|------------------------|-------------------------|------------------------|
F#|------------------------|------------------------|-------------------------|------------------------|
    *  *  *  *  *  *  *  *   *  *  *  *  *  *  *  *    *  *  *  *  *  *  *  *   *  *  *  *  *  *  *  *
 E|------------------------|------------------------|
 B|------------------------|------------------------|
 G|------------------------|------------------------|
 D|------------------------|------------------------|
 A|----------4--4--4--6--6-|----------4-------------|
 E|-6--6--6----------------|-6--6--6----------------|
 B|------------------------|------------------------|
F#|------------------------|------------------------|
    *  *  *  *  *  *  *  *   *  *  *  *  

|--------------------------------------------------------------------------------------------------------|
|                                          CHORUS (02:38-02:55)                                          |
|--------------------------------------------------------------------------------------------------------|

Guitars 1 and 2 (w/ dist)

 E|------------|-------------|------------------|-------------|-----------------|
 B|------------|-------------|------------------|-------------|-----------------|
 G|------------|-------------|------------------|-------------|-----------------|
 D|------------|-------------|------------------|-------------|-----------------|
 A|------------|-------------|------------------|-------------|-----------------|
 E|------------|-------------|------------------|-------------|-----------------|
 B|----4--6--7-|-6----6----6-|---6---4--6--7--6-|-6----6----6-|---6---4--6--7---|
F#|------------|-4----4----4-|---4--------------|-4----4----4-|---4-------------|

 E|-------------|-----------------|-------------|-------------------|
 B|-------------|-----------------|-------------|-------------------|
 G|-------------|-----------------|-------------|-------------------|
 D|-------------|-----------------|-------------|-------------------|
 A|-------------|-----------------|-------------|-------------------|
 E|-------------|-----------------|-------------|-------------------|
 B|-6----6----6-|---6---4--6--7---|-4----4----4-|---4----4--3---4---|
F#|-4----4----4-|---4-------------|-2----2----2-|---2----2--1---2---|

|--------------------------------------------------------------------------------------------------------|
|                                         VERSE 2 (02:55-03:27)                                          |
|--------------------------------------------------------------------------------------------------------|

Guitar 1 (w/ clean and delay)

    ............ ...... .........
 E|-----|-----|------------|-----|
 B|-----|-----|------------|-----|
 G|-8---|-----|-10---------|-----|
 D|-x---|-----|-x------8---|-----|
 A|-6---|-----|-8----------|-----|
 E|-----|-----|------------|-----|
 B|-----|-----|------------|-----|
F#|-----|-----|------------|-----|
                .......... .....                                         .......... .....
 E|---------------|-----|-----|----------------------------|---------------|-----|-----|-----------------|
 B|---------------|-----|-----|----------------------------|---------------|-----|-----|-----------------|
 G|-10----------8-|-----|-----|-11---11--10--11--10--8-h10-|-10----------8-|-----|-----|-----------------|
 D|-----11--10----|-----|-11--|----------------------------|-----11--10----|-----|-11--|-10b-r-b-t-b-r-b-|
 A|---------------|-----|-x---|----------------------------|---------------|-----|-x---|-----------------|
 E|---------------|-----|-9---|----------------------------|---------------|-----|-9---|-----------------|
 B|---------------|-----|-----|----------------------------|---------------|-----|-----|-----------------|
F#|---------------|-----|-----|----------------------------|---------------|-----|-----|-----------------|
                .......... .....                                         ........
 E|---------------|-----|-----|----------------------------|---------------|-----|
 B|---------------|-----|-----|----------------------------|---------------|-----|
 G|-10----------8-|-----|-----|-11---11--10--11--10--8-h10-|-10----------8-|-----|
 D|-----11--10----|-----|-11--|----------------------------|-----11--10----|-----|
 A|---------------|-----|-x---|----------------------------|---------------|-----|
 E|---------------|-----|-9---|----------------------------|---------------|-----|
 B|---------------|-----|-----|----------------------------|---------------|-----|
F#|---------------|-----|-----|----------------------------|---------------|-----|

Guitar 2 (w/ slight overdrive)

          .............
 E|------------|-------|
 B|------------|-------|
 G|------------|-------|
 D|------------|-------| x2
 A|------------|-------|
 E|-4--5--6----|-------|
 B|------------|-------|
F#|------------|-------|
                                                                                        *slowly bend 
 E|------------------------|------------------------|------------------------|------------------------|
 B|------------------------|------------------------|------------------------|------------------------|
 G|------------------------|------------------------|------------------------|------------------------|
 D|------------------------|------------------------|------------------------|------------------------| x2
 A|-6--6--6--6--6--6--6b-6-|-6--6--6--6--6--6--4--4-|-6--6--6--6--6--6--6b-6-|-6--6--6--6b-6b-6b-6b-6b|
 E|------------------------|------------------------|------------------------|------------------------|
 B|------------------------|------------------------|------------------------|------------------------|
F#|------------------------|------------------------|------------------------|------------------------|
    *  *  *  *  *  *  *  *   *  *  *  *  *  *  *  *   *  *  *  *  *  *  *  *   *  *  *  *  *  *  *  * 
 E|------------------------|------------------------|-------------------------|------------------------|
 B|------------------------|------------------------|-------------------------|------------------------|
 G|------------------------|------------------------|-------------------------|------------------------|
 D|------------------------|------------------------|-----8--------------8----|----8--------------8----|
 A|----------4--4--4--6--6-|----------4--4--6--6--4-|/s8-----8--6--6--8-----8-|-8-----8--6--6--8-----8-|
 E|-6--6--6----------------|-6--6--6----------------|-------------------------|------------------------|
 B|------------------------|------------------------|-------------------------|------------------------|
F#|------------------------|------------------------|-------------------------|------------------------|
    *  *  *  *  *  *  *  *   *  *  *  *  *  *  *  *    *  *  *  *  *  *  *  *   *  *  *  *  *  *  *  *
 E|------------------------|------------------------|
 B|------------------------|------------------------|
 G|------------------------|------------------------|
 D|------------------------|------------------------|
 A|----------4--4--4--6--6-|----------4-------------|
 E|-6--6--6----------------|-6--6--6----------------|
 B|------------------------|------------------------|
F#|------------------------|------------------------|
    *  *  *  *  *  *  *  *   *  *  *  *  

|--------------------------------------------------------------------------------------------------------|
|                                         CHORUS 2 (03:27-04:13)                                         |
|--------------------------------------------------------------------------------------------------------|

Guitars 1 and 2 (w/ dist)

 E|------------|-------------|------------------|-------------|-----------------|
 B|------------|-------------|------------------|-------------|-----------------|
 G|------------|-------------|------------------|-------------|-----------------|
 D|------------|-------------|------------------|-------------|-----------------|
 A|------------|-------------|------------------|-------------|-----------------|
 E|------------|-------------|------------------|-------------|-----------------|
 B|----4--6--7-|-6----6----6-|---6---4--6--7--6-|-6----6----6-|---6---4--6--7---|
F#|------------|-4----4----4-|---4--------------|-4----4----4-|---4-------------|

 E|-------------|-----------------|-------------|-------------------|
 B|-------------|-----------------|-------------|-------------------|
 G|-------------|-----------------|-------------|-------------------|
 D|-------------|-----------------|-------------|-------------------|
 A|-------------|-----------------|-------------|-------------------|
 E|-------------|-----------------|-------------|-------------------|
 B|-6----6----6-|---6---4--6--7---|-4----4----4-|---4----4--3---4---|
F#|-4----4----4-|---4-------------|-2----2----2-|---2----2--1---2---|

 E|-------------|-----------------|-------------|------------------|
 B|-------------|-----------------|-------------|------------------|
 G|-------------|-----------------|-------------|------------------|
 D|-------------|-----------------|-------------|------------------|
 A|-------------|-----------------|-------------|------------------|
 E|-------------|-----------------|-------------|------------------|
 B|-6----6----6-|---6---4--6--7---|-6----6----6-|---6---4--6--7--6-|
F#|-4----4----4-|---4-------------|-4----4----4-|---4--------------|

 E|-------------|-----------------|-------------|-------------------|
 B|-------------|-----------------|-------------|-------------------|
 G|-------------|-----------------|-------------|-------------------|
 D|-------------|-----------------|-------------|-------------------|
 A|-------------|-----------------|-------------|-------------------|
 E|-------------|-----------------|-------------|-------------------|
 B|-6----6----6-|---6---4--6--7---|-4----4----4-|---4----4--3---4---|
F#|-4----4----4-|---4-------------|-2----2----2-|---2----2--1---2---|

 E|----------|------------------------------|----------|-------------------------------|
 B|----------|------------------------------|----------|-------------------------------|
 G|----------|------------------------------|----------|-------------------------------|
 D|----------|------------------------------|----------|-------------------------------|
 A|----------|------------------------------|----------|-------------------------------|
 E|----------|-11--11--11--11--11--10---11--|----------|-11--------11---11---10---11---|
 B|-6----6---|-9---9---9---9---9---8----9---|-6----6---|-9----9----9----9----8----9----|
F#|-4----4---|------------------------------|-4----4---|------7------------------------|

 E|----------|------------------------------|
 B|----------|------------------------------|
 G|----------|------------------------------|
 D|----------|------------------------------| x2
 A|----------|------------------------------|
 E|----------|-11--11--11--11--11--10---11--|
 B|-6----6---|-9---9---9---9---9---8----9---|
F#|-4----4---|------------------------------|

|--------------------------------------------------------------------------------------------------------|
|                                          BRIDGE (04:13-04:43)                                          |
|--------------------------------------------------------------------------------------------------------|

Guitars 1 and 2 (w/ dist)

 E|---------------------|---------------------|---------------------|-------------------------|
 B|---------------------|---------------------|---------------------|-------------------------|
 G|---------------------|---------------------|---------------------|-------------------------|
 D|---------------------|---------------------|---------------------|-------------------------|
 A|---------------------|---------------------|---------------------|-------------------------|
 E|---------------------|---------------------|---------------------|-------------------------|
 B|-9---9--9--9---9--9--|-9---9--9--9---9--9--|-9---9--9--9---9--9--|-9---9--9--9-s11--11--11-|
F#|-7---7--7--7---7--7--|-7---7--7--7---7--7--|-7---7--7--7---7--7--|-7---7--7--7-s9---9---9--|

 E|------------------------|-----------------------|-----------------------|-----------------------|
 B|------------------------|-----------------------|-----------------------|-----------------------|
 G|------------------------|-----------------------|-----------------------|-----------------------|
 D|------------------------|-----------------------|-----------------------|-----------------------|
 A|------------------------|-----------------------|-----------------------|-----------------------|
 E|------------------------|-----------------------|-----------------------|-----------------------|
 B|-11-s6--6--6--6---6--6--|-6---6--6--6-s8--8--8--|-8-s4--4--4--4---4--4--|-4---4--4--4--4--4--4--|
F#|-9--s4--4--4--4---4--4--|-4---4--4--4-s6--6--6--|-6-s2--2--2--2---2--2--|-2---2--2--2--2--2--2--|

 E|-----------------------|-------------------------|----------------------|----------------------|
 B|-----------------------|-------------------------|----------------------|----------------------|
 G|-----------------------|-------------------------|----------------------|----------------------|
 D|-----------------------|-------------------------|----------------------|----------------------|
 A|-----------------------|-------------------------|----------------------|----------------------|
 E|-----------------------|-------------------------|----------------------|----------------------|
 B|-11--11-11-11-11-11-11-|-11-11-11-11-11-11-11-11-|-11s9--9--9--9---9--9-|-9-s8--8--8--8---8--8-|
F#|-9---9--9--9--9--9--9--|-9--9--9--9--9--9--9--9--|-9-s7--7--7--7---7--7-|-7-s6--6--6--6---6--6-|

 E|----------------------|----------------------|----------------------|--------------------|
 B|----------------------|----------------------|----------------------|--------------------|
 G|----------------------|----------------------|----------------------|--------------------|
 D|----------------------|----------------------|----------------------|--------------------|
 A|----------------------|----------------------|----------------------|--------------------|
 E|----------------------|----------------------|----------------------|--------------------|
 B|-11s6--6--6--6---6--6-|-6---6--6--6-s8--8--8-|-8-s4--4--4--4---4--4-|-4---4--4--4--3---4-|
F#|-9-s4--4--4--4---4--4-|-4---4--4--4-s6--6--6-|-6-s2--2--2--2---2--2-|-2---2--2--2--1---2-|

|--------------------------------------------------------------------------------------------------------|
|                                          OUTRO (04:43-05:20)                                           |
|--------------------------------------------------------------------------------------------------------|

Guitars 1 and 2 (w/ dist)

 E|----------|------------------------------|----------|------------------------|
 B|----------|------------------------------|----------|------------------------|
 G|----------|------------------------------|----------|------------------------|
 D|----------|------------------------------|----------|------------------------|
 A|----------|------------------------------|----------|------------------------|
 E|----------|-11--11--11--11--11--10---11--|----------|-9---8---9---9---8---9--|
 B|-6----6---|-9---9---9---9---9---8----9---|-6----6---|-7---6---7---7---6---7--|
F#|-4----4---|------------------------------|-4----4---|------------------------|

 E|----------|-----------------------|----------|------------------------------|
 B|----------|-----------------------|----------|------------------------------|
 G|----------|-----------------------|----------|------------------------------|
 D|----------|-----------------------|----------|------------------------------|
 A|----------|-----------------------|----------|------------------------------|
 E|-11---11--|-----------------------|----------|-11--11--11--11--11--10---11--|
 B|-9----9---|-9--9--9--9--9--11--11-|-6----6---|-9---9---9---9---9---8----9---|
F#|----------|-7--7--7--7--7--9---9--|-4----4---|------------------------------|

 E|----------|------------------------------|----------|------------------------|
 B|----------|------------------------------|----------|------------------------|
 G|----------|------------------------------|----------|------------------------|
 D|----------|------------------------------|----------|------------------------|
 A|----------|------------------------------|----------|------------------------|
 E|----------|-11--11--11--11--11--10---11--|----------|-9---8---9---9---8---9--|
 B|-6----6---|-9---9---9---9---9---8----9---|-6----6---|-7---6---7---7---6---7--|
F#|-4----4---|------------------------------|-4----4---|------------------------|
                                       ...............................
 E|----------|-----------------------|--------|-------|-------|-------|
 B|----------|-----------------------|--------|-------|-------|-------|
 G|----------|-----------------------|--------|-------|-------|-------|
 D|----------|-----------------------|--------|-------|-------|-------|
 A|----------|-----------------------|--------|-------|-------|-------|
 E|-11---11--|-----------------------|--------|-------|-------|-------|
 B|-9----9---|-9--9--9--9--9--11--11-|-6------|-------|-------|-------|
F#|----------|-7--7--7--7--7--9---9--|-4------|-------|-------|-------|


            
            
Suggest correction
Creating personal tab
Creating personal tab
You can edit any tab online and save it as your Personal.

You can edit, replace or remove any tab part or add personal notes – all changes will be seen only by you.

Personal tabs can be accessed anytime from any device, even offline.
Learn more »
comments
print report bad tab
guest
You may want to rate the tab now too:
select rating
Wanna post a correction for this tab? Suggest correction