Oops, an error
Loading. Please wait.

Hole In The Earth bass

version 1
version 1

Whole song

Interactive

6,204 views 1 this week
no commentswrite comment
1 2 3 4 5
1 last vote to show rating
add to favorites
×
Save as Personal and add changes to this tab that will be seen only by you. Learn more ›
×
You can save this tab as Personal to edit and correct it or add notes. All changes will be seen only by you. Learn more »
launch autoscroll
font size
0
reset
guitar tuner
backing track
0:00
0:00
edit
Autoscroll
slow
fast
+/-
esc
set tempo
stop
Hole In The Earth
Deftones
Saturday Night Wrist
Bass Tab
Tuning: drop E one step
Tabbed by Atomic West

The timing is F*CKD up and there may be more or less repetitions in some of the riffs,
to the song and be happy with tha tabs

opening thrash-ness
G|------------------------------------------------------------------------------------------------------------------|
D|------------------------------------------------------------------------------------------------------------------|
A|------------------------------------------------------------------------------------------------------------------|

for a bit)--------|


Verse 1st riff
g|-----------------------------------------------------------|
D|-----------------------------------------------------------| 2x (ithink)
A|------------/17-17-17-17-17-17-17-/4-4-4-4-4-4-4-4-4-4-4---|
E|-/0-0-0-0-0------------------------------------------------|

2nd riff
g|---------------------------------------------------------------------------|
D|---------------------------------------------------------------------------| 2x (ithink)
A|------------/17-17-17-17-17-17-17-/16-16-16-16-16-16-16/17--/4-4-4-4-4-4-4-|
E|-/0-0-0-0-0----------------------------------------------------------------|


Intermediate thrash
g|--------------------------------------------------------------------|
D|--------------------------------------------------------------------|
A|--------------------------------------------------------------------|
E|-2-2-2-2-0-2-0-2-0-2-000000000000-2-0-2-0-2-0(ring for a bit)-------|


Repeat Verse Riffs


Bridge (this is the most erroneous part of the tab)
g|----------------------------------------------------------|
D|----------------------------------------------------------| 3x (ithink)
A|---------------/4-4-4-4-4-4-/9-9-9-9-9-/17-17-17-17-17----|
E|-0-0-0-0-0-0-0--------------------------------------------|

Breakdown
g|----------------------------------------------------------|
D|----------------------------------------------------------| 3x (ithink)
A|-----------/17-17-17-17-17-17-17-/9-9-9-/12-12-12---------|
E|-0(ring)--------------------------------------------------|

Chorus
g|----------------------------------------------|
D|----------------------------------------------| 3x (ithink)
A|-----------/4-4-4-4-4-------------------------|
E|-4-4-4-4-4------------0-0-0-0-0---------------|


Pre-Thrash
g|--------------------------------------------------------------------|
D|--------------------------------------------------------------------|
A|---------------/17-17-17-17-17-17-/4-/17-17-17-17-17----------------|
E|-0-0-0-0-0-0-0------------------------------------------------------|

Final Thrash
g|--------------------------------------------------------------------------------|
D|--------------------------------------------------------------------------------|
A|--------------------------------------------------------------------------------|
E|-2-2-2-2-0-2-0-2-0-2-2-2-2-0-2-0-2-0-2-2-2-2-0-2-0-2-0-2/0/2/0/2/0/2/0/2/0/2-0--|(ring
hella long)-----------------------------------------------------------------------|

it sounds okay, it still needs tweaking, but thats the jist of the song's bass line

!!!!!!!!!!!!!!!!!!!!!!DEFTONES!!!!!!!!!!!!!!!!

            
            
Suggest correction
Creating personal tab
Creating personal tab
You can edit any tab online and save it as your Personal.

You can edit, replace or remove any tab part or add personal notes – all changes will be seen only by you.

Personal tabs can be accessed anytime from any device, even offline.
Learn more »
Give kudos to tab author, rate the tab!
1 2 3 4 5
comments
print report bad tab
guest
Wanna post a correction for this tab? Suggest correction