Oops, an error
Loading. Please wait.

Hole In The Earth bass

version 2
version 2

Whole song

Interactive

5,712 views 6 this week
2 commentsread comments
1 2 3 4 5
x 3
add to favorites
×
Save as Personal and add changes to this tab that will be seen only by you. Learn more ›
×
You can save this tab as Personal to edit and correct it or add notes. All changes will be seen only by you. Learn more »
launch autoscroll
font size
0
reset
guitar tuner
backing track
0:00
0:00
edit
Autoscroll
slow
fast
+/-
esc
set tempo
stop
Author
Artist- deftones             
Song- hole in the earth      
Album- Saturday night wrist
Tab by ROCKERO ANARQUICO (rockero_anarquico@hotmail.com)
	
Tablature legend
/n = bend to number (n) 
 ^ = 1/2 bend or pre-bend 


Listen for timing, these are also the notes 
Escuchen para la sincronización, estas son las notas

[00:07]
Gb|-------------------|
Db|-------------------|
Ab|-7-7-7-7--5-7--5-7-| 
Eb|-------------------|

[00:11]
Gb|------------------|
Db|------------------|
Ab|-7-5-555555555555-| 
Eb|------------------|

[00:14]
Gb|-----------------------------------------|
Db|-----------------------------------------|
Ab|-7-5--7-5--7-5--7-7-5-55-555-555-55555---| 
Eb|-----------------------------------------|

[00:21]
Gb|----------------------|
Db|----------------------|
Ab|-7777--5-7--5-7--7-5~-| 
Eb|----------------------|

[00:28]
Gb|-----------------------------------------------------------|
Db|-----------------------------------------------------------|
Ab|-----------------1717-1717171717---------------------------| x2
Eb|-10-101010101010/---------------12121212121212121212121212-|

[00:42]
Gb|--------------------------------------------------------------|
Db|--------------------------------------------------------------|
Ab|-----------------1717-17171717171717171717171717171717171717\-| 
Eb|-10-101010101010/---------------------------------------------|

[00:49]
Gb|-----------------------------------------------------------|
Db|-----------------------------------------------------------|
Ab|-----------------1717-1717171717---------------------------| 
Eb|-10-101010101010/---------------12121212121212121212121212-|

[00:56]
Gb|-----------------|
Db|---------444-444-|
Ab|-555-555---------| 
Eb|-----------------|

[00:59]
Gb|--------------------|
Db|--------------------|
Ab|-555-555-444-444-5~-| 
Eb|--------------------|


[01:06]
Gb|-------------------|
Db|-------------------|
Ab|-7-7-7-7--5-7--5-7-| 
Eb|-------------------|

[01:09]
Gb|------------------|
Db|------------------|
Ab|-7-5-555555555555-| 
Eb|------------------|

[01:13]
Gb|-----------------------|
Db|-----------------------|
Ab|-7-5--7-5--7-5--7-7-5~-| 
Eb|-----------------------|

[01:20]
Gb|-----------------------------------------------------------|
Db|-----------------------------------------------------------|
Ab|-----------------1717-1717171717---------------------------| x2
Eb|-10-101010101010/---------------12121212121212121212121212-|

[01:34]
Gb|----------------------------------------------------------------|
Db|----------------------------------------------------------------|
Ab|-----------------1717-1717171717171717171717171717171717171717\-| 
Eb|-10-101010101010/-----------------------------------------------|

[01:41]
Gb|-----------------------------------------------------------|
Db|-----------------------------------------------------------|
Ab|-----------------1717-1717171717---------------------------| 
Eb|-10-101010101010/---------------12121212121212121212121212-|

[01:48]
Gb|-----------------|
Db|-----------------|
Ab|-555-555-444-444-| x7
Eb|-----------------|

[02:13]
Gb|-------------------------------------------------|
Db|-------------------------------------------------|
Ab|-------------------------/2020-2020202020--------| x4
Eb|-101010101010101010101010---------------12121212-|

Gb|--------------------------------------------------|
Db|--------------------------------------------------|
Ab|-------------------------/2020-202020202020202020-| 
Eb|-101010101010101010101010-------------------------|



[02:40]
Gb|-----------------|
Db|-----------------|
Ab|-555-555-444-444-| x7 
Eb|-----------------|

[03:02]
Gb|---------------------------------------------------------------|
Db|---------------------------------------------------------------|
Ab|---------------------------------------------/2020--2020202020-| 
Eb|-10101010101010101010101212121212121212121212------------------|



[03:09]
Gb|---------------------------------------------|
Db|---------------------------------------------|
Ab|---------------------------/2020--2020202020-| 
Eb|-10101010101012121212121212------------------|

[03:16]
Gb|-------------------|
Db|-------------------|
Ab|-7-7-7-7--5-7--5-7-| x3
Eb|-------------------|

[03:26]
Gb|------------------------------------------------------------|
Db|------------------------------------------------------------|
Ab|-7-7^7-7^7-7^7-7^7-7^7-7^7-7^7-7^7-7^7-7^7-7^7-7^7-7^7-7^5~-| 
Eb|------------------------------------------------------------|



There you go. Listen to song
Ahí tienen. Escuchen la canción 

            
            
Suggest correction
Creating personal tab
Creating personal tab
You can edit any tab online and save it as your Personal.

You can edit, replace or remove any tab part or add personal notes – all changes will be seen only by you.

Personal tabs can be accessed anytime from any device, even offline.
Learn more »
Give kudos to tab author, rate the tab!
1 2 3 4 5
comments
print report bad tab
2 comments total.
+1 reply
SuburbanBassist 31 Jul 25, 2014 09:23 PM

Lack of accuracy.

+1 reply
SuburbanBassist 31 Jul 25, 2014 09:23 PM

the tuning is waaaaaaay off.

guest
You may want to rate the tab now too:
select rating
Wanna post a correction for this tab? Suggest correction