Oops, an error
Loading. Please wait.

Hole In The Earth tab

version 5
version 5

Whole song

Interactive

367 views 3 this week
no commentswrite comment
1 2 3 4 5
1 last vote to show rating
add to favorites
×
Save as Personal and add changes to this tab that will be seen only by you. Learn more ›
×
You can save this tab as Personal to edit and correct it or add notes. All changes will be seen only by you. Learn more »
launch autoscroll
font size
0
reset
how to read this tab
guitar tuner
backing track
0:00
0:00
edit
Autoscroll
slow
fast
+/-
esc
set tempo
stop
Author
-------------------------------------------------------------------------------
                             Hole In The Earth - Deftones
-------------------------------------------------------------------------------
Tabbed by: Alejandro
This is a seven string tuning: Drop F#
This is my first Tab. Did this after I couldn't find stef's part. This is supposed to go along with Chino's 
guitar which is on here and is in drop D
Credit also goes to DesertColdMoon on youtube who's video I referenced. go check him out for other great covers.
 

Tuning: Low to high: F# C# F# B E G# c#
Intro/Main Riff:
c#|--------------------------------------------------------------------------------------------------------|
g#|--------------------------------------------------------------------------------------------------------|
E |------------------------------10---------------------------10--------------------------------10---------|
B |--12-12-12-12--10-12-10-12----10---12-10-12-10-12-10-12-10-10----12-12-12-12--10-12-10-12----10---------|
F#|--10-10-10-10--8--10-8--10-8--8----10-8--10-8--10-8--10-8--8-----10-10-10-10--8--10-8--10-8--8----------|
C#|--10-10-10-10--8--10-8--10-8--8----10-8--10-8--10-8--10-8--8-----10-10-10-10--8--10-8--10-8--8----------|
F#|--10-10-10-10--8--10-8--10-8--8----10-8--10-8--10-8--10-8--8-----10-10-10-10--8--10-8--10-8--8----------|

Verse "Can you"...
c#|---------------------------------------------------------------------------|
g#|---------------------------------------------------------------------------|
E |--14-14-14-14-14-14-14-14-14-14-15-15-9-9-9-9-9-9-9-9-9-9-9-9--------------|
B |--X--X--X--X--X--X--X--X--X--X--X--X--X-X-X-X-X-X-X-X-X-X-X-X--------X2----|
F#|--12-12-12-12-12-12-12-12-12-12/13-13-7-7-7-7-7-7-7-7-7-7-7-7--------------|
C#|---------------------------------------------------------------------------|
F#|---------------------------------------------------------------------------|

"....It's too late for me now..."    Do this twice                          "I'm out...."
c#|---------8----------8------------------------------------------------------|
g#|----10------10--10-----10--------------------------------------------------|
E |--10---10-10--10--10-10----14-17-14-16br~--14-17-14-16br~------------------|
B |---------------------------------------------------------------------------|
F#|---------------------------------------------------------------------------|
C#|---------------------------------------------------------------------------|
F#|---------------------------------------------------------------------------|

Chorus "There's a hole in the earth....I'm out"
c#|--12----12----15----12----12----12----15----12-----15~~~-------------------|
g#|----13----13----13----13----13----13----13----13---13~~~-------------------|
E |------14----14----14----14----14----14----14----14-14~~~-------------------|
B |---------------------------------------------------------------------------|
F#|---------------------------------------------------------------------------|
C#|---------------------------------------------------------------------------|
F#|---------------------------------------------------------------------------|

c#|---------------------------------------------------------------------------|
g#|---------------------------------------------------------------------------|
E |------------------------------10---------------------------10--------------|
B |--12-12-12-12--10-12-10-12----10---12-10-12-10-12-10-12-10-10--------------|
F#|--10-10-10-10--8--10-8--10-8--8----10-8--10-8--10-8--10-8--8---------------|
C#|--10-10-10-10--8--10-8--10-8--8----10-8--10-8--10-8--10-8--8---------------|
F#|--10-10-10-10--8--10-8--10-8--8----10-8--10-8--10-8--10-8--8---------------|

Another Verse Same as before

chorus ("I hate allllll of my friends..."

c#|--12----12----15----12----12----12----15----12-------------------15~~~-----|
g#|----13----13----13----13----13----13----13----13----X6-----------13~~~-----|
E |------14----14----14----14----14----14----14----14---------------14~~~-----|
B |---------------------------------------------------------------------------|
F#|---------------------------------------------------------------------------|
C#|---------------------------------------------------------------------------|
F#|---------------------------------------------------------------------------|

Break: "Just take a bow....this is the end.." I'm not sure what they do but it sounds go to notes in key around
the tenth and twelfth fret.

Chorus part with this lead part. strum quickly
c#|---------------------------------------------------------------------------|
g#|-17~~~~~~~~~~~~~~~~~~~~16~~~~~~~~~~~~17~~~~~~~~~~~~~16~~~~~~~~~~~~~~~------|
E |---------------------------------------------------------------------------|
B |---------------------------------------------------------------------------|
F#|---------------------------------------------------------------------------|
C#|---------------------------------------------------------------------------|
F#|---------------------------------------------------------------------------|

"I'm out.......................................................somewhere......" 
c#|---------------------------------------------------------------------------|
g#|-17~~~~~~~~~~~~~~~~~~~--------------------------------~~~~~~~~~~~~~~~------|
E |---------------------------------------------------------------------------|
B |---------------------------------------------------------------------------|
F#|---------------------------------------------------------------------------|
C#|---------------------------------------------------------------------------|
F#|---------------------------------------------------------------------------|

Variation of Main Riff
c#|----------------------------------------------------------------------------------------------|
g#|----------------------------------------------------------------------------------------------|
E |----------------------------------------------------------------------------------------------|
B |--12-12-12-12--10-12-10-12-----12-12-12-12--10-12-10-12-----12-12-12-12--10-12-10-12----------|
F#|--10-10-10-10--8--10-8--10-8---10-10-10-10--8--10-8--10-8---10-10-10-10--8--10-8--10-8--------|
C#|--10-10-10-10--8--10-8--10-8---10-10-10-10--8--10-8--10-8---10-10-10-10--8--10-8--10-8--------|
F#|--10-10-10-10--8--10-8--10-8---10-10-10-10--8--10-8--10-8---10-10-10-10--8--10-8--10-8--------|

Last riff
c#|---------------------------------------------------------------------------|
g#|---------------------------------------------------------------------------|
E |-----------------------------------10~~~-----------------------------------|
B |-----------------------------------10~~~-----------------------------------|
F#|-----------------------------------8~~~~-----------------------------------|
C#|-----------------------------------8~~~~-----------------------------------|
F#|--10-10/11-8-10-10/11-8-10-10/11-8-8~~~~-----------------------------------|

Fading ending...play in half time
c#|--12----12----12----15----15----15----12-----12----12----15----15----15----|
g#|----13----13----13----13----13----13----13-----13----13----13----13----13--|
E |------14----14----14----14----14----14----14-----14----14----14----14----14|
B |---------------------------------------------------------------------------|
F#|---------------------------------------------------------------------------|
C#|---------------------------------------------------------------------------|
F#|---------------------------------------------------------------------------|

************************************

| /   slide up
| \   slide down
| h   hammer-on
| p   pull-off
| ~   vibrato
| +   harmonic
| x   Mute note
| b   Bend
| pb  Pre-bend
| br  Bend release
| pbr Pre-bend release
| brb Bend release bend

************************************

            
            
Suggest correction
Creating personal tab
Creating personal tab
You can edit any tab online and save it as your Personal.

You can edit, replace or remove any tab part or add personal notes – all changes will be seen only by you.

Personal tabs can be accessed anytime from any device, even offline.
Learn more »
Give kudos to tab author, rate the tab!
1 2 3 4 5
comments
print report bad tab
guest
You may want to rate the tab now too:
select rating
Wanna post a correction for this tab? Suggest correction