Oops, an error
Loading. Please wait.

Jealous Guy bass

896 views 1 this week
1 commentread comment
1 2 3 4 5
1 last vote to show rating
add to favorites
×
Save as Personal and add changes to this tab that will be seen only by you. Learn more ›
×
You can save this tab as Personal to edit and correct it or add notes. All changes will be seen only by you. Learn more »
launch autoscroll
font size
0
reset
guitar tuner
edit
Autoscroll
slow
fast
+/-
esc
set tempo
stop
Author
Difficulty
Deftones
Jealous Guy
Standard Tuning E A D G

This isn't too unlike the way Klaus Voormann plays on the original, 
however Chi Cheng does play it differently, so here it is!

http://oneloveforchi.com/
  
Intro - Bass starts at 0:44
G|--------------------------------|
D|-----------------8--------------|
A|10--8--3----10-8-----------5-3--|
E|-------------------6\3-2-0-----3|

Verse Starts at 1:11
G|-------------------------------------------|
D|-------------------------------------------|
A|3-5-7-10--7--5--05-57--07-7\5--5/7--7\3-3-3|
E|-------------------------------------------|

Chorus
G|------------------------------------------------------|
D|------------------------------------------------------|
A|10-10-8-8-3-3-35710-10-1-1-1-1---------------5-5-3-3--|
E|-------------------------------6\3-3-2-2-0-0---------3|

Whistle solo
G|-------------------------------------------------|
D|-------------------------------------------------|
A|3-5-7-10--7--5--05--5/7-07-7-7\5--5/7-7-7\3-3-3-3|
E|-------------------------------------------------|

Bridge (Listen to the rhythm of the bass, it's not as fast as you may think)
G|-----------------------------------------------------------------------------------|
D|------------------------------------------------------------------------8-8-8-8-8-8|
A|10-10-10-10-10-10-8-8-8-8-8-8-3-3-3-3-3-3-10-10-10-10-10-10-8-8-8-8-8-8------------|
E|-----------------------------------------------------------------------------------|

G|---------------------------------------------------------------|
D|---------------------------------------------------------------|
A|--------------------------------------5-5-5-5-5-5-3-3-3-3-3-3--|
E|6\3-3-3-3-3-3-2-2-2-2-2-2-0-0-0-0-0-0-------------------------3|

Final Verse
G|---------------------------------------------|
D|---------------------------------------------|
A|3\10--7--5--05--5/7-07-7-7\5--5/7-7-7\3-3-3-3|
E|---------------------------------------------|

Final Chorus (This is the same pace as the bridge)
G|-----------------------------------------------------------------------------------|
D|-----------------------------------------------------------------------------------|
A|10-10-10-10-10-10-8-8-8-8-8-8-3-3-3-3-3-3-10-10-10-10-10-10-8-8-8-8-8-8-1-1-1-1-1-1|
E|-----------------------------------------------------------------------------------|

G|---------------------------------------------------------------------------------------|
D|---------------------------------------------------------------------------------------|
A|--------------------------------------5-5-5-5-5-5-3-3-3-3-3-3--------------------------|
E|6\3-3-3-3-3-3-2-2-2-2-2-2-0-0-0-0-0-0-------------------------3-----3-----3-----3-----3|

            
            
Suggest correction
Creating personal tab
Creating personal tab
You can edit any tab online and save it as your Personal.

You can edit, replace or remove any tab part or add personal notes – all changes will be seen only by you.

Personal tabs can be accessed anytime from any device, even offline.
Learn more »
Give kudos to tab author, rate the tab!
1 2 3 4 5
comments
print report bad tab
1 comment total.
0 reply
Joey <3 Bass 10 Apr 22, 2013 07:53 PM

R.I.P. Chi Cheng

guest
You may want to rate the tab now too:
select rating
Wanna post a correction for this tab? Suggest correction